PrimaNota.ru - самый крупный в мире бесплатный архив песенных текстов, аккордов, табулатур и нот


The Ravenous - Keep My Grave Open - таба, видео

Регистрация Запомнить меня
Войти через:  Facebook Google Twitter Vk Yandex Mail.ru

The Ravenous - Keep My Grave Open - таба, видео

Печатать
Просмотров: 68
The Ravenous - Keep My Grave Open

Tuning is one quarter step sharper than C (1 and 3/4 steps down)
I open my mp3's in audacity and tune them down 1/4 step to jam along in C

GUITAR ONE - INTRO 0:14
|-------------------------------------------------------------------------|
|-------------------------------------------------------------------------|
|-------------------------------------------------------------------------|
|-------------------------------------------------------------------------|
|-------------------------------------------------------------------------|
|-------5--5--5--5h8p5--4--4--4-----5--5--5--5h8p5--4--4--4---------------|
CTND
|-------------------------------------------------------------------------|
|-------------------------------------------------------------------------|
|-------------------------------------------------------------------------|
|---------------------------------------------------------3--2------------|
|---------------------------------------------------------3--2------------|
|-------5--5--5--5h8p5--4--4--4-----5--5--5--5h8p5--4--4--1--0------------|

GUITAR TWO - INTRO 0:14
|-------------------------------------------------------------------------|
|--------------------------------------5------4-------5-----4-------------|
|--------------------------------------7b9~~--6b8~~---7b9~~-6b8~~---------|
|------------------------------------------------------------------3---2--|
|------7-------6--------7--------6---------------------------------3---2--|
|------5-------4--------5--------4---------------------------------1---0--| 



1ST VERSE  0:54 4x
|-------------------------------------------------------------------------|
|-------------------------------------------------------------------------|
|-------------------------------------------------------------------------|
|---------------------------------------------------------3--2------------|
|---------------------------------------------------------3--2------------|
|-------5--5--5--5h8p5--4--4--4-----5--5--5--5h8p5--4--4--1--0------------|

HARMONY  1:32  1x
|-------------------------------------------------------------------------|
|-------------------------------------------------------------------------|
|-------------------------------------------------------------------------|
|---------------------------------------------------------3--2------------|
|-------7--7--7--7b8r7--6--6--6-----7--7--7--7b8r7--6--6--3--2------------|
|---------------------------------------------------------1--0------------|



CHORUS 2:10  1x
|-------------------------------------------------------------------------|
|-------------------------------------------------------------------------|
|--------------------HOLD-------------HOLD--------------HOLD--------------|
|--------4-4-4-4-4-4--3---4-4-4-4-4-4--3----4-4-4-4-4-4--3----------------|
|--------4-4-4-4-4-4--3---4-4-4-4-4-4--3----4-4-4-4-4-4--3----------------|
|--------2-2-2-2-2-2--1---2-2-2-2-2-2--1----2-2-2-2-2-2--1----------------|
CTND
|-------------------------------------------------------------------------|
|-------------------------------------------------------------------------|
|---------------HOLD-------------HOLD--------------HOLD-------------HOLD--|
|---2-2-2-2-2-2--1---2-2-2-2-2-2--1----2-2-2-2-2-2--1---2-2-2-2-2-2--1----|
|---2-2-2-2-2-2--1---2-2-2-2-2-2--1----2-2-2-2-2-2--1---2-2-2-2-2-2--1----|
|---0-0-0-0-0-0------0-0-0-0-0-0-------0-0-0-0-0-0------0-0-0-0-0-0-------|



2ND VERSE 2:42  2x
|-------------------------------------------------------------------------|
|-------------------------------------------------------------------------|
|-------------------------------------------------------------------------|
|---------------------------------------------------------3--2------------|
|---------------------------------------------------------3--2------------|
|-------5--5--5--5h8p5--4--4--4-----5--5--5--5h8p5--4--4--1--0------------|

HARMONY  3:02  1x
|-------------------------------------------------------------------------|
|-------------------------------------------------------------------------|
|-------------------------------------------------------------------------|
|---------------------------------------------------------3--2------------|
|-------7--7--7--7b8r7--6--6--6-----7--7--7--7b8r7--6--6--3--2------------|
|---------------------------------------------------------1--0------------|



2ND CHORUS 3:21  1x
|-------------------------------------------------------------------------|
|-------------------------------------------------------------------------|
|--------------------HOLD-------------HOLD--------------HOLD--------------|
|--------4-4-4-4-4-4--3---4-4-4-4-4-4--3----4-4-4-4-4-4--3----------------|
|--------4-4-4-4-4-4--3---4-4-4-4-4-4--3----4-4-4-4-4-4--3----------------|
|--------2-2-2-2-2-2--1---2-2-2-2-2-2--1----2-2-2-2-2-2--1----------------|
CTND
|-------------------------------------------------------------------------|
|-------------------------------------------------------------------------|
|---------------HOLD-------------HOLD--------------HOLD-------------------|
|---2-2-2-2-2-2--1---2-2-2-2-2-2--1----2-2-2-2-2-2--1---2-2-2-2-2-2-------|
|---2-2-2-2-2-2--1---2-2-2-2-2-2--1----2-2-2-2-2-2--1---2-2-2-2-2-2-------|
|---0-0-0-0-0-0------0-0-0-0-0-0-------0-0-0-0-0-0------0-0-0-0-0-0-------|  



INSTRUMENTAL BREAK  3:53 1X        
|------------------LET--NOTES--RING--TOGETHER-----------------------------|
|-------------------------------------------------------------------------|
|-HOLD---------------------HOLD---------------------HOLD------------------|
|--1------4--1----------2---1------4--1----------2---1------4--1----------|
|--1---1--------1~~~----2---1---1--------1~~~----2---1---1--------1~~~----|
|-----------------------0------------------------0------------------------|
CTND
|-------------------------------------------------------------------------|
|-------------------------------------------------------------------------|
|-------HOLD--------------------------------------------------------------|
|----2---1------4--1------------------------------------------------------|
|----2---1---1--------1~~~------------------------------------------------|
|----0--------------------------------------------------------------------|



4:20 SOLO RYTHM  2x
|-------------------------------------------------------------------------|
|-------------------------------------------------------------------------|
|-------------------------------------------------------------------------|
|---------------------------------------------------------3--2------------|
|---------------------------------------------------------3--2------------|
|-------5--5--5--5h8p5--4--4--4-----5--5--5--5h8p5--4--4--1--0------------|

4:40 SOLO RYTHM HARMONY  1x
|-------------------------------------------------------------------------|
|-------------------------------------------------------------------------|
|-------------------------------------------------------------------------|
|-------------------------------------------------------------------------|
|------7---7---7---7h8p7h8p7h8p7h8h8p7h8-6---6---6------------------------|
|-------------------------------------------------------------------------|
CTND 4:50
|-------------------------------------------------------------------------|
|-------------------------------------------------------------------------|
|-------------------------------------------------------------------------|
|------9--9--9--9b10r9--8--8--8-------------------------------------------|
|-------------------------------------------------------------------------|
|-------------------------------------------------------------------------|




SOLO  4:20
|-------------------------------------------------------------------------|
|---------------------------7b8r7----------------T-R-I-L-L-I-N-G----------|
|---12b14r12--9~~~~~-/8-7h9-------9p7h9-8~~~~~---9p8h9p8h9p8h9p8h9p8h9----|
|------------------------------------------------RAISE-AND-LOWER-THE------|
|-------------------------------------------------FLOYD-ROSE-WHILE--------|
|----------------------------------------------------TRILLING-------------|
  4:31
|--------17-20p19h20-20b22~~~r20--17/16~~~---16-19p16--16-19p16-20p16-----|
|--20b22------------------------------------------------------------------|
|-------------------------------------------------------------------------|
|-------------------------------------------------------------------------|
|-------------------------------------------------------------------------|
|-------------------------------------------------------------------------|

|-16-20p16-19p16---16-17p16-17p16---16p14--14-16p14-----------------------|
|----------------------------------------16---------16--14h16p14--14h17---|
|---------------------------------------------------------------16--------|
|-------------------------------------------------------------------------|
|-------------------------------------------------------------------------|
|-------------------------------------------------------------------------|
     4:40
|-------------------------------------------------------------------------|
|--SLIDE------------------------------------------------------------------|
|--16/7--7b9--7b9r7-5~~~--7b9-7b9r7-5/4~~~~-------------------------------|
|--DOWN------------------------------------6~~~~4~~~~6~~~~----------------|
|-------------------------------------------------------------------------|
|-------------------------------------------------------------------------|
    4:50
|-------------------------------------------------------------------------|
|----13p10--10h14p10--14p10-13p10--13p10--10h14p10-13p10--10h14p10--10----|
|---------12--------12------------------12--------------12----------------|
|-------------------------------------------------------------------------|
|-------------------------------------------------------------------------|
|-------------------------------------------------------------------------|
     4:53
|-------------------------------------------------------------------------|
|---------7b8p7--------------7b8r7~~~-/11~~~~~-/16~~~15~~~~~~-SLIDE-DOWN--|
|---9-7h9-------7---8~~~~~~-----------------------------------------------|
|-------------------------------------------------------------------------|
|-------------------------------------------------------------------------|
|-------------------------------------------------------------------------|



3RD CHORUS 4:59  1x
|-------------------------------------------------------------------------|
|-------------------------------------------------------------------------|
|--------------------HOLD-------------HOLD--------------HOLD--------------|
|--------4-4-4-4-4-4--3---4-4-4-4-4-4--3----4-4-4-4-4-4--3----------------|
|--------4-4-4-4-4-4--3---4-4-4-4-4-4--3----4-4-4-4-4-4--3----------------|
|--------2-2-2-2-2-2--1---2-2-2-2-2-2--1----2-2-2-2-2-2--1----------------|
CTND
|-------------------------------------------------------------------------|
|-------------------------------------------------------------------------|
|---------------HOLD-------------HOLD--------------HOLD-------------HOLD--|
|---2-2-2-2-2-2--1---2-2-2-2-2-2--1----2-2-2-2-2-2--1---2-2-2-2-2-2--1----|
|---2-2-2-2-2-2--1---2-2-2-2-2-2--1----2-2-2-2-2-2--1---2-2-2-2-2-2--1----|
|---0-0-0-0-0-0------0-0-0-0-0-0-------0-0-0-0-0-0------0-0-0-0-0-0-------|


5:33  Play until end of song fades out
|-------------------------------------------------------------------------|
|-------------------------------------------------------------------------|
|-------------------------------------------------------------------------|
|---------------------------------------------------------3--2------------|
|---------------------------------------------------------3--2------------|
|-------5--5--5--5h8p5--4--4--4-----5--5--5--5h8p5--4--4--1--0------------|

FEEDBACK AT END OF SONG
|--------------------------------17~~~~~~~~~~~~~~~~~~~~~~~~~~~~~~~~~~~~~~-|
|----last-note-sustained-at-end-------------------------------------------|
|-------------------------------------------------------------------------|
|-------------------------------------------------------------------------|
|-------------------------------------------------------------------------|
|-------------------------------------------------------------------------|

Добавлено: 30.09.2013
Другие материалы по этой песне:
  • Аккорды и текст

Страница создана 30.09.2013
http://primanota.ru/the-ravenous/keep-my-grave-open-chords.htm
Привет, Гость.
Предлагаем пройти революционный курс по гитаре.
Подарок от PrimaNota.Ru, забирай!