PrimaNota.ru - самый крупный в мире бесплатный архив песенных текстов, аккордов, табулатур и нот


The Rakes - We Danced Ogether - таба, видео

Регистрация Запомнить меня
Войти через:  Facebook Google Twitter Vk Yandex Mail.ru

The Rakes - We Danced Ogether - таба, видео

Печатать
Просмотров: 81
This is a great song from their new alum Ten New Messages (released March 19th 07). This 
only the solo. I would do the whole tab but there are a couple of little bits that i 
work out. For those of you interested he uses a fender telecaster. Here you go:

Standard Tuning EADGBE

1:57

e|--------------------------------|
B|--------------------------------|
G|--------------------------------|
D|--11-11-11-11-11--9-------------|
A|---------------------11--9------|
E|----—---------------------------|

e|---------------------------------|
B|---------------------------------|
G|---------------------------------|
D|--11-9---------------------------|
A|-------11------------------9--11-|
E|----—-----12-12-----9--12--------|

e|---------------------------------|
B|---------------------------------|
G|------------------9-9-9----------|
D|--11-9------11-9-----------------|
A|-------11-9----------------------|
E|----—----------------------------|

e|---------------------------------|
B|---------------------------------|
G|---------------------------------|
D|---------------------------------|
A|-------9-------9------9------9---|
E|--9h12----9h12---9h12---9h12-----|

e|---------------------------------|
B|---------------------------------|
G|---------------------------------|
D|---------------------------------|
A|-------9----11-------------------|
E|--9h12--—9-----9-9\7-9 9---------|

e|--------------------------9-----9|
B|--------------------------9-----9|
G|--9--9--9-----9--9--9--9--9-----9|
D|--11-11-11p9--11-11-11-9----11---|
A|---------------------------------|
E|----—----------------------------|

And thats it. Please rate as this is my first tab :P
Добавлено: 27.03.2012
Другие материалы по этой песне:
  • Аккорды и текст

Страница создана 27.03.2012
http://primanota.ru/the-rakes/we-danced-ogether-chords.htm
Привет, Гость.
Предлагаем пройти революционный курс по гитаре.
Подарок от PrimaNota.Ru, забирай!