PrimaNota.ru - самый крупный в мире бесплатный архив песенных текстов, аккордов, табулатур и нот


The Radio Dept - Your Father - аккорды и текст, видео

Регистрация Запомнить меня
Войти через:  Facebook Google Twitter Vk Yandex Mail.ru

The Radio Dept - Your Father - аккорды и текст, видео

Печатать
Просмотров: 93
Уроки эстрадного вокала в Санкт-Петербурге
Your Father
The Radio Dept
Intro:

E|--2-----------------5s7s5----2-------5s7s5----2-3-5-5-5s7-7s10-10-8-7-5----2--5s7s5--|
B|-----0--3---0---1--------------0-1---------------------------------------------------|
G|-------------------------------------------------------------------------------------|
D|-------------------------------------------------------------------------------------|
A|-------------------------------------------------------------------------------------|
E|-------------------------------------------------------------------------------------|


    G                            D                        Am
The fire caught us burning with desire to get out in the open
    G                         D
My daddy had a camera and he caught a few moments to
Am
show them
G                                      D                    Am
The fire took us higher We were hoping to expire when you came in
    Em
With water
   G                       D                   Am
We were only kids when we first laid eyes on eachother
    G                         D
Everything was great but you should have warned me about
    Am
your father
  G
At first he took the crap
       D                      Am
But I soon learned not to even bother
        Em
With your father

E|-10--8-7------------10--10--12--14~--12---8--8h10--8----(8h10)------------------|
B|-----------10---8---------------------------------------------------------------|
G|--------------------------------------------------------------------------------| 2x
D|--------------------------------------------------------------------------------|
A|--------------------------------------------------------------------------------|
E|--------------------------------------------------------------------------------|
    G                             D
Now that you're away I'm jerking off every day to your
Am
memory
   G                              D
You finding someone else was a real blow
      Am
Who will defend me?
     G                             D
I'm drinking every day but try to behave the same way I did
Am
before
    Em
But it's hard
It's oh so hard

Outro:

E|-10--8-7------------10--10--12--14~--12---8--8h10--8----(8h10)------------------|
B|-----------10---8---------------------------------------------------------------|
G|--------------------------------------------------------------------------------| 2x
D|--------------------------------------------------------------------------------|
A|--------------------------------------------------------------------------------|
E|--------------------------------------------------------------------------------|
Добавлено: 01.12.2013
Другие материалы по этой песне:
  • Аккорды и текст

Страница создана 26.07.2013
http://primanota.ru/the-radio-dept/your-father-chords.htm
Привет, Гость.
Предлагаем пройти революционный курс по гитаре.
Подарок от PrimaNota.Ru, забирай!