PrimaNota.ru - самый крупный в мире бесплатный архив песенных текстов, аккордов, табулатур и нот


The Radio Dept - Someone Else - аккорды и текст, видео

Регистрация Запомнить меня
Войти через:  Facebook Google Twitter Vk Yandex Mail.ru

The Radio Dept - Someone Else - аккорды и текст, видео

Печатать
Просмотров: 103
Someone Else
The Radio Dept
Artist: The Radio Dept.
Song: Someone Else
Album: Pulling Our Weight


C#m Chord:           C#m* Chord


E|--0----------|      E|---4---------
B|--2----------|      B|---5---------
G|--1----------|      G|---6---------
D|--2----------|      D|---6---------
A|--0----------|      A|---4---------
E|-------------|      E|-------------


Intro: C#m

C#m                       F#m
It amazes me how much I want you
           C#m              F#m
We seem to fall out every time
                 C#m                       F#m
And again when I feel that we're closing in
                       C#m             F#m           C#m       F#m
You say "Look I really can't pull this off, not this time"


C#m  F#m   C#m   F#m   C#m

   D   C#m  F#m  C#m*  D  C#m  F#m  C#m*  D

E|-----5-4---------------5-4---------------------------------------------|
B|-7---------5--2----7--------5---3--------------------------------------|
G|-----------------------------------------------------------------------| x2
D|-----------------------------------------------------------------------|
A|-----------------------------------------------------------------------|
E|-----------------------------------------------------------------------|


C#m
What's with all these people?
        F#m
Who are they?
             C#m
What do they want?
              F#m
I don't carry drugs in my pocket
       C#m                          F#m
Though you said it would bring us closer
                  C#m             F#m
I don't think you meant to each other
                 C#m      F#m     C#m     F#m
But to something else
F#m     C#m
Someone else

Outro: C#m   F#m   C#m   D   C#m  F#m  C#m*  D   C#m    F#m    C#m*    D 

(keep on repeating and end with A)

E|--5-7-9-------5-7-9--------------5-7-9------------------------------------|
B|---------7~----------5s3~---x3-----------9---5----------------------------|
G|-------------------------------------------------2------------------------|
D|--------------------------------------------------------------------------|
A|--------------------------------------------------------------------------|
E|--------------------------------------------------------------------------|
Добавлено: 06.07.2013
Другие материалы по этой песне:
  • Аккорды и текст

Страница создана 02.06.2013
http://primanota.ru/the-radio-dept/someone-else-chords.htm
Привет, Гость.
Предлагаем пройти революционный курс по гитаре.
Подарок от PrimaNota.Ru, забирай!