PrimaNota.ru - самый крупный в мире бесплатный архив песенных текстов, аккордов, табулатур и нот


The Radio Dept - I Dont Like It Like This - таба, видео

Регистрация Запомнить меня
Войти через:  Facebook Google Twitter Vk Yandex Mail.ru

The Radio Dept - I Dont Like It Like This - таба, видео

Печатать
Просмотров: 169
Intro/Verse:                                                            
                                                                Dmaj7
E|---------------------------------------------------------------------------------------|
B|---------------------------------------------------------------------------------------|
G|-------------------------------------------------0------4------------------------------|
D|-4----------2s4--------------5-------------------2------5------------------------------|
A|-5---------------------------5-------------------3------3------------------------------| x2
E|-----------------------------3---------------------------------------------------------|

                                                                Dmaj7
E|-----------------------------------------------------------------------|
B|-----------------------------------------------------------------------|
G|-7--6--7----------------------0-----4----------------------------------|
D|-4--5--5-------5--------------2-----5----------------------------------|
A|-5--4--4-------5--------------3-----3----------------------------------|
E|---------------3-------------------------------------------------------|






Dmaj7          G5
Words fail me all the time
C            Cmaj7             Dmaj7
I don't even feel like talking 
Dmaj7       G       
Still I go on and on
C              Cmaj7                
I'm dying here and you keep walking

G            D            
why are you asking me this?
G             D          
can't you see I'm trying?
G       D                  
I don't like it like this
G                   D 
no I think I'm dying 

Dmaj7         G5
I can't calm down at all
C             Cmaj7           
panic is what panic feels like
Dmaj7         G5  
can't we just stay silent?
C                  Cmaj7 -
speaking now seems far too violent 


G            D            
why are you asking me this?
G             D          
can't you see I'm trying?
G       D                  
I don't like it like this
G                   D 
no I think I'm dying 

E|---------------------------------------------------------------------------------|
B|---------------------------------------------------------------------------------|
G|-----9-9~------9-9-9--7-7-7---------7-7-7----------------------------------------|
D|-----------------------------7s9-----------4-4-4-2-------------------------------|
A|---------------------------------------------------------------------------------| x2
E|---------------------------------------------------------------------------------|
Добавлено: 12.07.2013
Другие материалы по этой песне:
  • Аккорды и текст

Страница создана 12.07.2013
http://primanota.ru/the-radio-dept/i-dont-like-it-like-this-chords.htm
Привет, Гость.
Предлагаем пройти революционный курс по гитаре.
Подарок от PrimaNota.Ru, забирай!