PrimaNota.ru - самый крупный в мире бесплатный архив песенных текстов, аккордов, табулатур и нот


The Radio Dept - Domestic Scene - аккорды и текст, видео

Регистрация Запомнить меня
Войти через:  Facebook Google Twitter Vk Yandex Mail.ru

The Radio Dept - Domestic Scene - аккорды и текст, видео

Печатать
Просмотров: 101
Domestic Scene
The Radio Dept
Domestic Scene - The Radio Dept.

Tabbed by: Nicholas Klose
E-mail- nicholasjklose@gmail.com

tuning: EADGBe


C#                    Fm      Bbm
Domestic scene what's missing here?
G#               F#
Leaving just in time

C#              Fm         Bbm
Social climbers at the frontier
G#                 F#
But I refuse that climb

G#                   F# 
I'm leaving just in time
G#                   F# 
I'm leaving just in time
G#               F#
Leaving just in time

C#               Fm   Bbm
Domestic scene do I belong?  
G#                 F#          C#
Seemed like a good idea at one time
        Fm        Bbm
But now it's all wrong
G#        F#
Already declined

I'm leaving just in time
I'm leaving just in time
Leaving just in time

Leaving just in time
I'm leaving just in time
I'm leaving just in time
Leaving just in time

some other guitar parts might not be right but somewhat.

e|-9-----8-----6------------------|
B|--9-----9------------2--4-6-4-2-|
G|---10----10------1-3------------|
D|--------------------------------|
A|--------------------------------|
E|--------------------------------|

e|-------------------2-1----------|
B|-----------------------1--------|
G|--------6--------3-------3------|
D|-3-1h3-6------------------------|
A|--------------------------------|
E|--------------------------------|
Добавлено: 10.11.2013
Другие материалы по этой песне:
  • Аккорды и текст

Страница создана 10.11.2013
http://primanota.ru/the-radio-dept/domestic-scene-chords.htm
Привет, Гость.
Предлагаем пройти революционный курс по гитаре.
Подарок от PrimaNota.Ru, забирай!