PrimaNota.ru - самый крупный в мире бесплатный архив песенных текстов, аккордов, табулатур и нот


The Rabble - Salvation - таба, видео

Регистрация Запомнить меня
Войти через:  Facebook Google Twitter Vk Yandex Mail.ru

The Rabble - Salvation - таба, видео

Печатать
Просмотров: 217
Уроки эстрадного вокала в Санкт-Петербурге
I haven't found a guitar tab for this awesome song, so I gave it a shot at tabbing it myself. 
It's my first tab ever, so there may be mistakes (even though it's mostly just power chords). 
It's not exactly note by note, just take it as a template and be creative.
* - palm mute

INTRO:
e:-------------------------------------------------------------------|
B:-------------------------------------------------------------------|
G:-----9-9------9----------------------9-9------9-11-9-14-14---------|
D:-----9-9------9-11-9-7-7------7-11-9-9-9------9-11-9-14-14---------|
A:-----7-7-7777-7-11-9-7-7------7-11-9-7-7-7777-7-9--7-12-12-121212--|
E:-12/------------9--7-5-5-5555-5-9--7-------------------------------|
           ****            ****            ****              * * *         
e:-------------------------------------------------------------------|
B:-------------------------------------------------------------------|
G:-141414/-99999------------------99999-11-9-1414141414-13-11--------|
D:-141414/-99999-11-9-777777-11-9-99999-11-9-1414141414-13-11--------|
A:-121212/-77777-11-9-777777-11-9-77777-9--7-1212121212-11-9---------|
E:---------------9--7-555555-9--7------------------------------------|

e:-------------------------------------------------------------------|
B:-------------------------------------------------------------------|
G:-99999------------------99999-11-9-1414141414141414----------------|
D:-99999-11-9-777777-11-9-99999-11-9-1414141414141414-9--------------|
A:-77777-11-9-777777-11-9-77777-9--7-1212121212121212-9--------------|
E:-------9--7-555555-9--7-----------------------------7--------------|

PRE-VERSE:
e:-------------------------------------------------------------------|
B:-------------------------------------------------------------------|
G:--------9999999---------9999999------------------------------------|
D:------9-9999999-7777777-9999999-7777777----------------------------|
A:----9-9-7777777-7777777-7777777-7777777----------------------------|
E:-77-7-7---------5555555---------5555555----------------------------|
   ** *                                     
VERSE:              8x    Before the melody kicks in
e:---------------------|---------------------------------------------|
B:---------------------|---------------------------------------------|
G:-9-----------------9-|---9-----------------------------------------|
D:-9-9999999---------9-|---9-9999999---------------------------------|
A:-7-7777777-7777777-7-|---7-7777777---------------------------------|
E:-----------5555555---|-------------5-4h5-4-2-----------------------|
     ******* *******         *******

2nd GUITAR, VERSE MELODY 4x
e:-------------------------------------------------------------------|
B:-------------------------------------------------------------------|
G:-------------------------------------------------------------------|
D:-9-9-11-9-12-11-9-11-----------------------------------------------|
A:-------------------------------------------------------------------|
E:-------------------------------------------------------------------|

BRIDGE:          CHORUS(4x):      BRIDGE (Yeah, it goes like this!): 
e:-------------|-----------------|-----------------------------------|
B:-------------|-----------------|-----------------------------------|
G:-------------|-9999999---------|-----------------------------------|
D:-9---------9-|-9999999-7777777-|-9---------------------------------|
A:-9-------9-9-|-7777777-7777777-|-9---------------------------------|
E:-7-------7-7-|---------5555555-|-7--*pickslide*--------------------|
           * 
INTERLUDE:
e:-------------------------------------------------------------------|
B:-------------------------------------------------------------------|
G:--------------99999-8-9--------------99999-11-13--1414141414-13-11-|
D:-77777777-999-99999-8-9-77777777-999-99999-11-13—-1414141414-13-11-|
A:-77777777-999-77777-6-7-77777777-999-77777-9--11--1212121212-11-9--|
E:-55555555-777-----------55555555-777-------------------------------|

e:-------------------------------------------------------------------|
B:-------------------------------------------------------------------|
G:-1313131313-11-11-99999-11-13-11-9---------------------------------|
D:-1313131313-11-11-99999-11-13-11-9---------------------------------|
A:-1111111111-9--9--77777-9--11-9--7---------------------------------|
E:-----------------------------------*pickslide*---------------------|

VERSE 2:
e:-------------------------------------------------------------------|
B:-------------------------------------------------------------------|
G:--------------99999999--------------99999999-----------------------|
D:-77777777-999-99999999-77777777-999-99999999-77777777-999-11111111-|
A:-77777777-999-77777777-77777777-999-77777777-77777777-999-11111111-|
E:-55555555-777----------55555555-777----------55555555-777-9-9-9-9--|

e:-------------------------------------------------------------------|
B:-------------------------------------------------------------------|
G:-------------------999999------------------------------------------|
D:-777-9999-11111111-999999------------------------------------------|
A:-777-9999-11111111-777777------------------------------------------|
E:-555-7777-9-9-9-9--------------------------------------------------|

CHORUS(4x):         BRIDGE:
e:-----------------|--------------------------------------------------|
B:-----------------|--------------------------------------------------|
G:--9999999--------|--------------------------------------------------|
D:--9999999-777777-|--9-----------------------------------------------|
A:--7777777-777777-|--9-----------------------------------------------|
E:----------555555-|--7-----------------------------------------------|

INTERLUDE (same as before)
VERSE 3 (same as verse 2)
CHORUS
BRIDGE (just the B chord again)

AFTER THIS:
e:-------------------------------------------------------------------|
B:-------------------------------------------------------------------|
G:-----999999-9-8-999999-9-8-999999-9-8-999999-9-8-9999-11-9---------|
D:---9-xxxxxx-x-x-xxxxxx-x-x-xxxxxx-x-x-xxxxxx-x-x-xxxx------11------|
A:---9-777777-7/6-777777-7/6-777777-7/6-777777-7/6-7777--------------|
E:-7-7---------------------------------------------------------------|
                                                   4x
e:----------------------------------------------|------------------|-|
B:-101010101010----------------------1010101010-|------------------|-|
G:--------------12-11--9999-11-9----------------|------------------|-|
D:---------------------xxxx------11-------------|-9--------------9-|-|
A:---------------------7777---------------------|-9------99---99-9-|-|
E:---------------------------------------------7|-7----7-77-7-77-7-|-|
* ** * **
e:-------------------------------------------------------------------|
B:-------------------------------------------------------------------|
G:-9999999---------13131313131313-141414-1313131313------------------|
D:-9999999-7777777-13131313131313-141414-1313131313------------------|
A:-7777777-7777777-11111111111111-121212-1111111111------------------|
E:---------5555555---------------------------------------------------|
   ******* ******* * * * * * * *  * * *  * * * * * 
2nd guitar:                          Both gtrs 3x:
e:----------------------------------|---------------|------------------|
B:----------------------------------|---------------|------------------|
G:-9--------------------------------|9999999--------|------------------|
D:-9------9--7-----9----------------|9999999-7777777|-9----------------|
A:-7------9--7-----9----------------|7777777-7777777|-9----------------|
E:--------7--5-----7------\slide up-|--------5555555|-7--*pickslide*---|
     
    3x again
e:--|----------------|-------------------------------------------------|
B:--|----------------|-------------------------------------------------|
G:--|-9999999--------|-------9-----------9\----------------------------|
D:--|-9999999-7777777|-7--9--9---------9-9\----------------------------|
A:--|-7777777-7777777|-7--9--7-------9-9-7\----------------------------|
E:- |---------5555555|-5--7-------77-7-7-------------------------------|
                                  ** *
Добавлено: 29.07.2012
Другие материалы по этой песне:
  • Аккорды и текст

Страница создана 08.07.2012
http://primanota.ru/the-rabble/salvation-chords.htm
Привет, Гость.
Предлагаем пройти революционный курс по гитаре.
Подарок от PrimaNota.Ru, забирай!