PrimaNota.ru - самый крупный в мире бесплатный архив песенных текстов, аккордов, табулатур и нот


The Quakes - I Miss You - таба, видео

Регистрация Запомнить меня
Войти через:  Facebook Google Twitter Vk Yandex Mail.ru

The Quakes - I Miss You - таба, видео

Печатать
Просмотров: 271
-------------------------------------------------------------------------------
                             I MISS YOU - The Quakes
-------------------------------------------------------------------------------
Tabbed by: Zack the Ripper
Email: thekillr@hotmail.com

Tuning: Standard

Rhythm Guitar: Verse/Chorus just strum these chords for chorus
e|---------3~---------------------------|
B|-5~--3~--5~--[3~]---------------------|
G|-7~--5~--5~--[5~]---------------------|
D|-7~--5~--4~--[5~]---------------------|
A|-6~--4~------[4~]---------------------|
E|------------------5-5-5-5-3-0-4-3-0~--|

Lead Guitar: Verse
e|------------------------------------------------------------------------------|
B|------------------------------------------------------------------------------|
G|------------------------------------------------------------------------------|
D|------------------------------------------------------------------------------|
A|-3-5-5^5~-3-5^5-3-------------------------------------------------------------|
E|------------------5-0\--------------------------------------------------------|

I'll put up the solo when I get around to tabbing it. Good luck shredders.

| ^  pull up
| [] chorus only
| /  slide up
| \  slide down
| h  hammer-on
| p  pull-off
| ~  vibrato
| +  harmonic
| x  Mute note
===============================================================================
Добавлено: 10.03.2012
Другие материалы по этой песне:
  • Аккорды и текст

Страница создана 10.03.2012
http://primanota.ru/the-quakes/i-miss-you-chords.htm
Привет, Гость.
Предлагаем пройти революционный курс по гитаре.
Подарок от PrimaNota.Ru, забирай!