PrimaNota.ru - самый крупный в мире бесплатный архив песенных текстов, аккордов, табулатур и нот


The Prom Kings - Bleeding - таба, видео

Регистрация Запомнить меня
Войти через:  Facebook Google Twitter Vk Yandex Mail.ru

The Prom Kings - Bleeding - таба, видео

Печатать
Просмотров: 182
-------------------------------------------------------------------------------
Bleeding - The Prom Kings-------------------------------------------------------------------------------
Tabbed by:jsully
Email:josef.sullivan@yahoo.com
not totally sure but this sounds prettt cool 

Tuning: DROP C

d|---------------------------------------------------------------------------|
A|---------------------------------------------------------------------------|
F|---------------------------------------------------------------------------|
C|--------------4-------5p4-------4---------------4---------5p4--------4-----|
G|-----3---3--------3---------3---------0---0--------0-------------0---------|
C|---------------------------------------------------------------------------|

e|---------------------------------------------------------------------------|
B|---------------------------------------------------------------------------|
G|---------------------------------------------------------------------------|
D|---------------4------------5p4--------------4h5--------------4h5----------|
A|---------------------------------------------------------------------------|
E|------2--2---------2---------------2---2-----------0----0------------------|
Добавлено: 03.04.2012
Другие материалы по этой песне:
  • Аккорды и текст

Страница создана 03.04.2012
http://primanota.ru/the-prom-kings/bleeding-chords.htm
Привет, Гость.
Предлагаем пройти революционный курс по гитаре.
Подарок от PrimaNota.Ru, забирай!