PrimaNota.ru - самый крупный в мире бесплатный архив песенных текстов, аккордов, табулатур и нот


The Project Hate Mcmxcix - The Lustrate Process - таба, видео

Регистрация Запомнить меня
Войти через:  Facebook Google Twitter Vk Yandex Mail.ru

The Project Hate Mcmxcix - The Lustrate Process - таба, видео

Печатать
Просмотров: 112
The Lustrate Process Solos
ARTIST: The Projcet Hate MCMXCIX - Solos by the specified artists
ALBUM : The Lustrate Process

Tuning (High to Low): E-B-G-D-A-E (STANDARD)

PM- Palm mute     * - Pinch Harmonic
\ - Slide down    > - let ring
/ - Slide up      h - hammer on
~ - Vibrato       p - pull off
w - wide vibrato  b(1/4) - Bend (step)
. - Stoccato      br(1/4) - Bend release (step)


.............................................................................

SONG: Descend Into the Eternal Pits of Possession
@ 4:50
Solo by Mike Wead

PART I
E|-------------15b(1)----15-13-12----------------------------------------|
B|----------13--------------------15-13-12-------------------------------|
G|-11-14-15--------------------------------14-12-------------------14~---|
D|-----------------------------------------------15-14-12----------------|
A|--------------------------------------------------------15-14-12-------|
E|-----------------------------------------------------------------------|

PART II
E|-15--17--13--17--12--17------17----------------------------|
B|-------------------------15------12~---13---12---11---10---|
G|-----------------------------------------------------------|
D|-----------------------------------------------------------|
A|-----------------------------------------------------------|
E|-----------------------------------------------------------|

E|----------------------12--13--12----.------------------|
B|-12h13p12----12-13-15---------------11----10--10w------|
G|----------14-------------------------------------------|
D|-------------------------------------------------------|
A|-------------------------------------------------------|
E|-------------------------------------------------------|

PART III
E|-15--18--12--15--18--12--15/18--21------18------15----------------------|
B|------------------------------------17------14------14--17--------------|
G|------------------------------------------------------------15--14~-----|
D|------------------------------------------------------------------------|
A|------------------------------------------------------------------------|
E|------------------------------------------------------------------------|

PART IV
E|------------------------------------------------------------------------|
B|-10h11p10---------------------------------------------------------------|
G|-----------12----10----/9h10p9------------------------------------------|
D|--------------------------------8----7~--------------------------5------|
A|--------------------------------------------10----10~------11-------6~--|
E|------------------------------------------------------------------------|

.............................................................................

SONG: You Come to Me Through Hell
@ 4:24
Solo by Mike Wead

PART I
E|--------------------------------------11-14b(1/2)--|
B|-14br(1/2)------12~-------12-13-12-13--------------|
G|-----------------------14--------------------------|
D|---------------------------------------------------|
A|---------------------------------------------------|
E|---------------------------------------------------|

E|-14-12-11--------------------|
B|----------13-12-10-----------|
G|-------------------12-11w----|
D|-----------------------------|
A|-----------------------------|
E|-----------------------------|

PART II
E|-20-17-19-20-19-17----------------|
B|----------------------------------|
G|-------------------17-14-16-17-14-|
D|----------------------------------|
A|----------------------------------|
E|----------------------------------|

E|-20--17------17-----------------------------------------|
B|---------19------19--17--16-----------------------------|
G|-----------------------------18--16---------------------|
D|-------------------------------------19--17--16---------|
A|-------------------------------------------------18w----|
E|--------------------------------------------------------|

PART III
E|-14---11-------------17---14------------|
B|-----------13---12-------------16---13--|
G|----------------------------------------|
D|----------------------------------------|
A|----------------------------------------|
E|----------------------------------------|

E|----------16-17-20-17-16-------------22b(1)----22b(1)w----|
B|-16-17-19----------------19-17-16-------------------------|
G|----------------------------------17----------------------|
D|----------------------------------------------------------|
A|----------------------------------------------------------|
E|----------------------------------------------------------|

PART IV
E|----------------------------------------|
B|---------------------19--16--17--19--16-|
G|-17--14--15--17--14---------------------|
D|----------------------------------------|
A|----------------------------------------|
E|----------------------------------------|

E|---------------------17--14--15--17--14---------------------|
B|------------------------------------------------------------|
G|-17--14--15--17--14----------------------17--14--15--17--14-|
D|------------------------------------------------------------|
A|------------------------------------------------------------|
E|------------------------------------------------------------|


E|-19--16--17--19--16----------------------19b(1)w----|
B|----------------------------------------------------|
G|---------------------17--14--15--17--14-------------|
D|----------------------------------------------------|
A|----------------------------------------------------|
E|----------------------------------------------------|

.............................................................................

SONG: See the Filth Become Flames In This Furnace
@ 2:52
Solo by Henry Pyykkö (appears courtesy of Whyte Ash)

PART I
E|-------------------------------------|
B|-14p10----------10h15p10----------10-|
G|-------11----11----------11----11----| x4
D|----------12----------------12-------|
A|-------------------------------------|
E|-------------------------------------|

(C Maj)
E|-15p12----------------------12h15p12-[12h15p12]-|    
B|-------13----------------13---------------------|    
G|----------12----------12------------------------| x2 
D|-------------14----14---------------------------|    
A|----------------15------------------------------|    
E|------------------------------------------------|

Notes in [these brackets] = play first time only

PART II
E|-15br(1)--------14--13b(1)------|
B|------------14------------------|
G|--------------------------------|
D|--------------------------------|
A|--------------------------------|
E|--------------------------------|    

E|------------12--13br(1)14w---12/14-15-17-15-14----------------------------|
B|--13---12--------------------------------------17-15-14----14b(1/2)whammy-|
G|--------------------------------------------------------16----------------|
D|--------------------------------------------------------------------------|
A|--------------------------------------------------------------------------|
E|--------------------------------------------------------------------------|

PART III (C Maj)
E|-15p12----------------------12h15p12-15br(1)----13--15--14b(1/2)w----|    
B|-------13----------------13------------------------------------------|    
G|----------12----------12---------------------------------------------| 
D|-------------14----14------------------------------------------------|    
A|----------------15---------------------------------------------------|    
E|---------------------------------------------------------------------|

E|--15--17--18--19br(1)20w----|
B|----------------------------|
G|----------------------------|
D|----------------------------|
A|----------------------------|
E|----------------------------|


@ 3:23
Solo by Mike Wead

PART I
E|-15/17--17--17--17\13--13--13--13/15--15--15--15\12--12--12--|
B|-------------------------------------------------------------|
G|-------------------------------------------------------------|
D|-------------------------------------------------------------|
A|-------------------------------------------------------------|
E|-------------------------------------------------------------|

E|-13-12-10-12-10----------------------------------------|
B|----------------14-11-14-14-11-10-14-11-10-------------|
G|-------------------------------------------12-10-------|
D|-------------------------------------------------14~---|
A|-------------------------------------------------------|
E|-------------------------------------------------------|

PART II
E|-------------15-19-18b(1/2)~---18-17-15----------------------------------|
B|----------14----------------------------18-17-15-------18-17-15----------|
G|-------15----------------------------------------17-15----------17-15-14-|
D|-14/17-------------------------------------------------------------------|
A|-------------------------------------------------------------------------|
E|-------------------------------------------------------------------------|

E|--------------------------------|
B|--------------------------------|
G|----14-15-14--------------------|
D|-17----------17-15-14----14~----|
A|----------------------17--------|
E|--------------------------------|

PART III
E|----------------------------------10-12-13-18-17-15----------|
B|-------------------------10-11-13-------------------18-17~---|
G|----------12-14-15-14~---------------------------------------|
D|-12-14-15----------------------------------------------------|
A|-------------------------------------------------------------|
E|-------------------------------------------------------------|

E|----------------15-17-18-18-17-15------------------------|
B|-18-17-15-17-18-------------------18-17-15---------------|
G|-------------------------------------------17-15-14~-----|
D|---------------------------------------------------------|
A|---------------------------------------------------------|
E|---------------------------------------------------------|

.............................................................................

SONG: Our Wrath Will Rain Down from the Sky
@ 8:12
Solo by Mike Wead

PART I
E|-12h13p12----12-13-12----|   |-12h13p12----12-13-12-13-15-|
B|----------15----------13-|   |----------15----------------|
G|-------------------------|x2 |----------------------------|
D|-------------------------|   |----------------------------|
A|-------------------------|   |----------------------------|
E|-------------------------|   |----------------------------|

E|-18--17--15------------------------------------------------------------|
B|-------------18--17--15--17b(1/2)w--15--14~----------------------------|
G|---------------------------------------------15--14----------/19-18w---|
D|----------------------------------------------------17--16~------------|
A|-----------------------------------------------------------------------|
E|-----------------------------------------------------------------------|

PART II
E|----------------------14-15-14----14-15-17-20-19-17----------22br(1/2)w--|
B|-14-15-14----14-15-17----------17-------------------20-19-17-------------|
G|----------16-------------------------------------------------------------|
D|-------------------------------------------------------------------------|
A|-------------------------------------------------------------------------|
E|-------------------------------------------------------------------------|

PART III
E|-18-17-15----------------------------------------------------------------|
B|----------18-17-15-------18-17-15----------------------------------------|
G|-------------------17-15----------17-15-14-15-17-15-14-------------------|
D|-------------------------------------------------------17-15-14----------|
A|----------------------------------------------------------------17-15-14-|
E|-------------------------------------------------------------------------|

E|--------------------------------------------------|
B|--------------------------------------------------|
G|--------------------------------------------------|
D|-15-14-------14----------12br(1/2)w\--------------|
A|-------17-15----17-15-14--------------------------|
E|--------------------------------------------------|

PART IV                              .
E|-12h13p12----12-13-12h13p12----12-13----|
B|----------15----------------15----------|
G|----------------------------------------|
D|----------------------------------------|
A|----------------------------------------|
E|----------------------------------------|

.............................................................................

SONG: The Locust Principles
@ 0:00
Solo by Mike Wead

PART I
E|-----------*--------------------------------|
B|-13b(1/2)-13w---15-16-15-13-15-13br(1)------|
G|--------------------------------------------|
D|--------------------------------------------|
A|--------------------------------------------|
E|--------------------------------------------|

PART II (RUN)
E|----------------------------------------------------------------------|
B|-13-------------------------------------------------------------------|
G|----15-14-15-14-12----12----------------------------------------------|
D|-------------------16----16-13-12-13-16-13-12-13-12-------12----------|
A|----------------------------------------------------15-13----15-13-12-|
E|----------------------------------------------------------------------|

E|----------------------------------------------------------|
B|----------------------------------------------------------|
G|----------------------------------------------------------|
D|----------------------------------------------------------|
A|-15-13-12----13-12-------12-------------9-10-9--------.---|
E|----------15-------15-13----15-13-10-11--------11-10-11---|

PART III
E|-----------------------------------------------|
B|-----------------------------------------------|
G|--------------------------------------12h14h15-|
D|-----------------------.-----12h14h15----------|
A|----12-13-14-13-12----12--15-------------------|
E|-15----------------15--------------------------|

E|----------------------------------------------|
B|-15--16--13--16------16------16---.-----------|
G|-----------------15------14------12----11~----|
D|----------------------------------------------|
A|----------------------------------------------|
E|----------------------------------------------|

PART IV
E|-------------18-17-15----------------------|
B|-------15~------------18-17-15-------------|
G|-14~---------------------------17-15-14\---|
D|-------------------------------------------|
A|-------------------------------------------|
E|-------------------------------------------|


@ 6:22
Solo by Anders Bertilsson

PART I
E|-----------------------------------------------------------------|
B|-----------------------------------------------------------------|
G|----------------------------------------------------------*------|
D|-12-12---12-12-12---12-12---12-12-12---11b(1/2)----------11w-----|
A|------------------------------------------------13-12-13---------|
E|-----------------------------------------------------------------| 

E|------------------------------------------------|
B|------------------------------------------------|
G|------------------------------------------------|
D|-11-11-11-11-11--12--11h12p11----11b(1/2)~------|
A|------------------------------13----------------|
E|------------------------------------------------|

PART II
E|-------------------------------------------------------------------|
B|--------------------------------------------------*----------------|
G|-/19-17-19-17----------------------6--6--6--6--5--9--6--6--5--5~---|
D|--------------20-19-17---------------------------------------------|
A|-----------------------20-19-17~-----------------------------------|
E|-------------------------------------------------------------------|

E|-------------------------------|
B|-------------------------------|
G|-------------------------------|
D|-8--8/10--10/11--11/14--14\10--|
A|-------------------------------|
E|-------------------------------|

PART III
E|---------------------------*---------------------------------------------|
B|----------------17br(1/2)-17------------15------14------11------11-------|
G|-9br(1/2)-9w--------------------14--14------14------14------14------12~--|
D|-------------------------------------------------------------------------|
A|-------------------------------------------------------------------------|
E|-------------------------------------------------------------------------|

E|------------------------------------------------------|
B|------------*-----12--11h12p11------------------------|
G|-12-15-12--12w-----------------12-11-9----------*-----|
D|---------------------------------------12-11-9-12w----|
A|------------------------------------------------------|
E|------------------------------------------------------|

PART IV
E|--------------------------------------------------------------------------|
B|-------------------------------------------------------------14b(1/2)-14w-|
G|---------------------------------12--12--12--10--10--9--9-----------------|
D|-11-8-7-------------7-8-11-8-7-8--------------------------12--------------|
A|--------10-8-7-8-10-------------------------------------------------------|
E|--------------------------------------------------------------------------|

.............................................................................

SONG: Arise to His World of Infamy
@ 0:00
Solo by Pär Fransson (appears courtesy of Soulbreach)

NOTE: The sweeping in the beginning is not what he plays and is very hard 
to decipher because of the fade-in, but it is close enough so that it still 
sounds good, if anyone knows what he is doing, contact me.

PART I
E|-------------11h15p11----------------------13h17p13-----------|
B|----------13----------13----------------15----------15--------|
G|-------12----------------12----------14----------------14-----|
D|----13----------------------13----15----------------------15--|
A|-15----------------------------17-----------------------------|
E|--------------------------------------------------------------|

E|-------------16h20p16-20b(1)--20br(1)w--|
B|----------18----------------------------|
G|-------17-------------------------------|
D|----18----------------------------------|
A|-20-------------------------------------|
E|----------------------------------------|

PART II
E|-20-17h20p17-19-17h19p17-------------------------|
B|-------------------------21-18h21p18-19-18h19p18-|
G|-------------------------------------------------|
D|-------------------------------------------------|
A|-------------------------------------------------|
E|-------------------------------------------------|

E|--------------------------------------------------------|
B|-18h19p18-----------------------------------------------|
G|----------21-19-18----------19-18-----------------------|
D|-------------------21-19-18-------21-19-18--------------|
A|-------------------------------------------21-19-16~\---|
E|--------------------------------------------------------|

PART III
E|-------------------------------------------------------------------|
B|-------------------------------------------------------------------|
G|---------x2-----------------x2-------------------------------------|
D|-(16-12-15-16-15-12)-(13-9-12-13-12-9)-----------------------------|
A|-------------------------------------------------------------------|
E|---------------------------------------9-5-8-9-8-5-11-7-10-11-10-7-|

E|-------------------------------------------|
B|-------------------------------------------|
G|-------------------------------------------|
D|-----------------15-11-14-15-14-11-14-11~--|
A|-12-8-11-12-11-8---------------------------|
E|-------------------------------------------|

PART IV
E|-------------13/16--------------------16/19--------20b(1)w--|
B|----------12-------18--------------15-------21--------------|
G|-------13-------------19\-------16-------------22\----------|
D|-12/15--------------------15/18-----------------------------|
A|------------------------------------------------------------|
E|------------------------------------------------------------|


@ 3:40
Solo by Mike Wead

[these brackets] indicate start of next peice

PART I
E|-------------------------------------------|
B|-------------------------------------------|
G|-10~---9--10--9--10--12--10~---12--[9~]----|
D|-------------------------------------------|
A|-------------------------------------------|
E|-------------------------------------------|

E|----------------------13-10-----------------------|
B|----------------------------11-8------------------|
G|-10-9----9-10-9-10-12------------10-9-------------|
D|------12------------------------------10-7-[12~]--|
A|--------------------------------------------------|
E|--------------------------------------------------|

PART II
E|--------------------------------------------------|
B|---------------------------13----15b(1/4)---------|
G|-14~---12--14--12--14--15------------------12~----|
D|--------------------------------------------------|
A|--------------------------------------------------|
E|--------------------------------------------------|

PART III
E|--------------------------------------------------|
B|--------------------------------------------------|
G|-15--12--15--12----------------------------12~----|
D|-----------------15~---14--15--14--15--12---------|
A|--------------------------------------------------|
E|--------------------------------------------------|

E|-12h13p12-------------------------------------------------------------|
B|----------15-13----15-13-11----13-11----------------------------------|
G|----------------15----------14-------14----------------12-14-15-13-12-|
D|----------------------------------------15-14-12-14-15----------------|
A|----------------------------------------------------------------------|
E|----------------------------------------------------------------------|

E|------------------|
B|-------13-15~-----|
G|-14-15------------|
D|------------------|
A|------------------|
E|------------------|

PART IV
E|---------------------------------------------|
B|-------------------------11~-----10~---8~----|
G|-10~---9--10--9--10--12----------------------|
D|---------------------------------------------|
A|---------------------------------------------|
E|---------------------------------------------|

.............................................................................

SONG: The Burial of Gods
@ 3:51
Solo by Mike Wead

PART I
E|-12h13p12-------------------------13/15-19-17-15-------------------|
B|----------15-13-12-------13-15-17----------------18-17-15----------|
G|-------------------14-16----------------------------------17-16-14-|
D|-------------------------------------------------------------------|
A|-------------------------------------------------------------------|
E|-------------------------------------------------------------------|

E|-------------------------------------|
B|-18-17-15----------------------------|
G|----------17-16-14-------------------|
D|-------------------15-14-12----------|
A|----------------------------11~\-----|
E|-------------------------------------|

PART II
E|------------------------------------------------------------------------|
B|------------------------------------------------------------------------|
G|-----------------------------------------------9--10--9---7---10--9~----|
D|--------------10~---9------10~------------------------------------------|
A|-/11--12--14-----------12-----------------------------------------------|
E|---------------------------------12--13--12~----------------------------|

PART III
E|---------------8h12p8---------8h12p8---------|
B|------------10--------10---10--------10------|
G|---------9---------------9--------------9/17-|
D|-----10--------------------------------------|
A|-12------------------------------------------|
E|---------------------------------------------|
   PM-------|

E|-20-17\15----17-------------------------------12--12~---|
B|----------17-------17-------------12-13-15~-------------|
G|----------------17----17\13-13/14-----------------------|
D|--------------------------------------------------------|
A|--------------------------------------------------------|
E|--------------------------------------------------------|

PART IV
E|-17-20----------------------------------------------------|
B|-------18-21----------------------------21-18-------------|
G|-------------19-22----------------19-22-------19-16-17w---|
D|-------------------19-22\--/18-21-------------------------|
A|----------------------------------------------------------|
E|----------------------------------------------------------|

.............................................................................


Добавлено: 06.05.2012
Другие материалы по этой песне:
  • Аккорды и текст

Страница создана 06.05.2012
http://primanota.ru/the-project-hate-mcmxcix/the-lustrate-process-chords.htm
Привет, Гость.
Предлагаем пройти революционный курс по гитаре.
Подарок от PrimaNota.Ru, забирай!