PrimaNota.ru - самый крупный в мире бесплатный архив песенных текстов, аккордов, табулатур и нот


The Potbelleez - Jeep Theme Dont Hold Back - таба, видео

Регистрация Запомнить меня
Войти через:  Facebook Google Twitter Vk Yandex Mail.ru

The Potbelleez - Jeep Theme Dont Hold Back - таба, видео

Печатать
Просмотров: 68
-------------------------------------------------------------------------------
                             dont hold back (jeep ad theme) - the potbelleez
-------------------------------------------------------------------------------
Tabbed by: rofl4lfe
E-mail: rofl4lfe@gmail.com

Tuning: eBGDAE

e|---------------------------------------------------------------------------|
B|---------------------------------------------------------------------------|
G|6-6-6-6-6-6-6-6-6-6-6-6----------------------------------------------------|
D|6-6-6-6-6-6-6-6-6-6-6-6----------------------------------------------------|
A|4-4-4-4-4-4-4-4-4-4-4-4----------------------------------------------------|
E|---------------------------------------------------------------------------|

e|---------------------------------------------------------------------------|
B|---------------------------------------------------------------------------|
G|4-4-4-4-4-4-4-4-4-4-4-4----------------------------------------------------|
D|4-4-4-4-4-4-4-4-4-4-4-4----------------------------------------------------|
A|2-2-2-2-2-2-2-2-2-2-2-2----------------------------------------------------|
E|---------------------------------------------------------------------------|

e|---------------------------------------------------------------------------|
B|---------------------------------------------------------------------------|
G|---------------------------------------------------------------------------|
D|4-4-4-4-4-4-4-4-4-4-4-4----------------------------------------------------|
A|4-4-4-4-4-4-4-4-4-4-4-4----------------------------------------------------|
E|2-2-2-2-2-2-2-2-2-2-2-2----------------------------------------------------|

enjoy :D xD :), add your own strum patterns but this is just the stuff to play, not strum patterns, this is my
first tab so dont be harsh, comment what you think please, and just simply have fun playing :D

************************************

| /   slide up
| \   slide down
| h   hammer-on
| p   pull-off
| ~   vibrato
| +   harmonic
| x   Mute note
| b   Bend
| pb  Pre-bend
| br  Bend release
| pbr Pre-bend release
| brb Bend release bend

************************************
Добавлено: 30.10.2015
Другие материалы по этой песне:
  • Аккорды и текст

Страница создана 30.10.2015
http://primanota.ru/the-potbelleez/jeep-theme-dont-hold-back-chords.htm
Привет, Гость.
Предлагаем пройти революционный курс по гитаре.
Подарок от PrimaNota.Ru, забирай!