PrimaNota.ru - самый крупный в мире бесплатный архив песенных текстов, аккордов, табулатур и нот


The Police - Low Life - текст песни, таба, бас-таба, видео

Регистрация Запомнить меня
Войти через:  Facebook Google Twitter Vk Yandex Mail.ru

The Police - Low Life - текст песни, таба, бас-таба, видео

Печатать
Просмотров: 177
Tabbed by: Belavista Man
Edited On: 03/04/07
Email: anthonybentley@hotmail.com

   A             F#m          G             D
e|-------------------------------------------------------------------------|
B|-------14-----------10------------12------------7------------------------|
G|-----14--14-------11--11--------12--12--------7---7----------------------|
D|---14------14---11------11----12------12----7-------7--------------------|
A|-12------------9------------10------------5------------------------------|
E|-------------------------------------------------------------------------|

Play this twice and then play:
   A             F#m          G            D
e|-------------------------------------------------------------------------|
B|-----------------------------------------------7-------------------------|
G|-------6-------------2------------4----------7---7-----------------------|
D|-----7----7--------4---4--------5---5------7-------7---------------------|
A|---7--------7----4-------4----5-------5--5-------------------------------|
E|-5-------------2------------3--------------------------------------------|

And then finally play:
   F#m          E             G6 Asus2
e|----------------------------0--0-----------------------------------------|
B|----------------------------0--0-----------------------------------------|
G|-------2------------1-------0-h2-----------------------------------------|
D|-----4---4--------2---2-----0-h2-----------------------------------------|
A|---4-------4----2-------2------------------------------------------------|
E|-2------------0----------------------------------------------------------|
Добавлено: 02.05.2012
Другие материалы по этой песне:

Страница создана 15.03.2012
http://primanota.ru/the-police/low-life-chords.htm
Привет, Гость.
Предлагаем пройти революционный курс по гитаре.
Подарок от PrimaNota.Ru, забирай!