PrimaNota.ru - самый крупный в мире бесплатный архив песенных текстов, аккордов, табулатур и нот


The Police - Hungry For You (J'Aurais Toujours Faim De Toi) - текст песни, бас-таба, видео

Регистрация Запомнить меня
Войти через:  Facebook Google Twitter Vk Yandex Mail.ru

The Police - Hungry For You (J'Aurais Toujours Faim De Toi) - текст песни, бас-таба, видео

Печатать
Просмотров: 106
Tabbed by: bassm99
E-mail: alanmatthews1966@yahoo.co.uk

Tuning: E, A, D, G

"Hungry For You (J'Aurais Toujours Faim De Toi)" from the album "Ghost In The Machine" (1981)
Written by Sting

Intro:   

G|----------------------------------------------------------------------------|
D|----------------------------------------------------------------------------|
A|--0-3--5-5--------------------0-3--5-5-(x2)---------------------------------|
E|-------------0-1--3-3-(x3)--------------------------------------------------|

Verse:   

G|----------------------------------------------------------------------------|
D|----------------------------------------------------------------------------|
A|--0-3--5-5--------------------0-3--5-5-(x2)---------------------------------|
E|-------------0-1--3-3-(x7)--------------------------------------------------|

Chorus: (Play Twice)

G|----------------------------------------------------------------------------|
D|----------------------------------------------------------------------------|
A|-------3-3----------------0-3--5-5----0-3--5-5------------------------------|
E|--3-5---------0-1--3-3------------------------------------------------------|

Repeat Verse:

Repeat Chorus:

Repeat Intro:

Repeat Chorus: (Play 4 Times)

Verse: (Play 4 Times)

G|----------------------------------------------------------------------------|
D|----------------------------------------------------------------------------|
A|--0-3--5-5------------------------------------------------------------------|
E|-------------0-1--3-3-------------------------------------------------------|

Ending: (Play 5 Times) (Fading Out)

G|----------------------------------------------------------------------------|
D|----------------------------------------------------------------------------|
A|--0-3--5-5------------------------------------------------------------------|
E|-------------0-1--3-3-------------------------------------------------------|

End: (Fades Out)

G|----------------------------------------------------------------------------|
D|----------------------------------------------------------------------------|
A|--0-3--5-5------------------------------------------------------------------|
E|----------------------------------------------------------------------------|
Добавлено: 07.07.2015
Другие материалы по этой песне:
  • Аккорды и текст

Страница создана 18.07.2012
http://primanota.ru/the-police/hungry-for-you-jaurais-toujours-faim-de-toi-chords.htm
Привет, Гость.
Предлагаем пройти революционный курс по гитаре.
Подарок от PrimaNota.Ru, забирай!