PrimaNota.ru - самый крупный в мире бесплатный архив песенных текстов, аккордов, табулатур и нот


The Pogues - Sick Bed Of Cachulainn - бас-таба

Регистрация Запомнить меня
Войти через:  Facebook Google Twitter Vk Yandex Mail.ru

The Pogues - Sick Bed Of Cachulainn - бас-таба

Печатать
Просмотров: 95
I'm pretty sure this is correct.  Listen for timing.
Comments and/or corrections welcome.  Enjoy

Intro

---------------------------------------------------|
---------------------------------------------------|
---3----5----3----5----3----5---------3------------|
---------------------------------1-----------------|

Verse A

---------------------------------------------------|
---------------------------------------------------|
---3----5----3----5----3----5---------3------------|
---------------------------------1-----------------|

---------------------------------------------------|
---------------------------------------------------|
---3----5----3----5----3----5----------------------|
---------------------------------5----5------------|

Verse B

--------------------------------------------------|
-------3---5-----------3---5------------5---3---5-|
--3--1---3----3---3--1---3-----3---3--3---1---3---|
1-----------1---1------------1---1----------------|


-----------------------------------------------------------|
--3---3---5---5-------------3--------3--------5------------|
1---1---3---3------3---3--1-----3--1-----3--3-----3--------|
-----------------1---1--------1--------1--------1----------|

INTERLUDE

------------------------------------|
-----------3---5------------3-------|
--3---3--1---3-----3---3--1-----3---|
1---1------------1---1--------1-----|

INTERLUDE B

------------|
------------|
3(let ring)-
------------


Intro X1
Verse A X1
Verse B X1
Interlude A X1
Verse B X1
Interlude  A X2
Interlude B X1
Verse A X1
Verse B X1
Interlude (until fade out)
Добавлено: 10.06.2012
Другие материалы по этой песне:
  • Аккорды и текст

Страница создана 10.06.2012
http://primanota.ru/the-pogues/sick-bed-of-cachulainn-chords.htm
Привет, Гость.
Предлагаем пройти революционный курс по гитаре.
Подарок от PrimaNota.Ru, забирай!