PrimaNota.ru - самый крупный в мире бесплатный архив песенных текстов, аккордов, табулатур и нот


The Pogues - A pair of brown eyes banjo - таба, видео

Регистрация Запомнить меня
Войти через:  Facebook Google Twitter Vk Yandex Mail.ru

The Pogues - A pair of brown eyes banjo - таба, видео

Печатать
Просмотров: 84
Уроки эстрадного вокала в Санкт-Петербурге


A PAIR OF BROWN EYES by THE POGUES
BANJO TAB
This should be all you need to play the song.


INTRO
D|-----------2------2---------------2--------------|
B|------1--------------1----------------1---0------|
G|--0---------------------------0---------------2--|
D|--------------------------2----------------------|
G|--------------0----------------------------------|

VERSE
                                                                                                 D|----------0------0----------------0------0-------|--------2------2---------------2------2------|
B|------0--------------0--------0---------------0--|-----1--------------1-------1-------------1--|
G|--0-----------------------0----------------------|--2----------------------0-------------------|
D|-------------------------------------------------|---------------------------------------------|
G|--------------0-----------------------0----------|-----------0----------------------0----------|

D|----------0------0----------------0------0-------|--------2------2---------------2------2------|
B|------0--------------0--------0---------------0--|-----1--------------1-------1-------------1--|
G|--0-----------------------0----------------------|--0----------------------2-------------------|
D|-------------------------------------------------|---------------------------------------------|
G|--------------0------------------------0---------|------------0----------------------0---------|


D|----------0------0----------------0------0-------|--------2------2---------------2------2------|
B|------0--------------0--------0---------------0--|-----1--------------1-------1-------------1--|
G|--0-----------------------0----------------------|--2----------------------0-------------------|
D|-------------------------------------------------|---------------------------------------------|
G|--------------0------------------------0---------|------------0----------------------0---------|

Fill played at the end of the verse's and the chorus.

D|----------0----------2------------2-----------0--|--------2-------2-------------2-------2------|
B|------0-----------1-----------1------------0-----|-----1--------------1------1--------------1--|
G|--0-----------2-----------0------------0---------|--0---------------------2--------------------|
D|-------------------------------------------------|---------------------------------------------|
G|-------------------------------------------------|------------0---------------------0----------|

Chorus

D|----------0----------2------------2-----------0--|--------0---------2------------2----------0--|
B|------0-----------1-----------1------------0-----|-----0---------1-----------1----------0------|
G|--0-----------2-----------0------------0---------|--0---------2-----------0---------0----------|
D|-------------------------------------------------|---------------------------------------------|
G|-------------------------------------------------|---------------------------------------------|


Instrumental

D|--10---10-10-10-10-----10---10-10-10-10-----10---10-10-10-10----10-10-10-10-10-10--|
B|-----------------------------------------------------------------------------------|
G|-----------------------------------------------------------------------------------|
D|-----------------------------------------------------------------------------------|
G|-----------------------------------------------------------------------------------|

D|--10----9----7----5-------5---------------|
B|----------------------5-------------------|
G|------------------------------------------|
D|------------------------------------------|
G|------------------------------------------|





Добавлено: 27.08.2013
Другие материалы по этой песне:
  • Аккорды и текст

Страница создана 27.08.2013
http://primanota.ru/the-pogues/a-pair-of-brown-eyes-banjo-chords.htm
Привет, Гость.
Предлагаем пройти революционный курс по гитаре.
Подарок от PrimaNota.Ru, забирай!