PrimaNota.ru - самый крупный в мире бесплатный архив песенных текстов, аккордов, табулатур и нот


The Panic Channel - Teahouse of the Spirits - аккорды и текст, видео

Регистрация Запомнить меня
Войти через:  Facebook Google Twitter Vk Yandex Mail.ru

The Panic Channel - Teahouse of the Spirits - аккорды и текст, видео

Печатать
Просмотров: 117
Teahouse of the Spirits
The Panic Channel
----------------------------------------------------------------------------
                     TEAHOUSE OF SPIRITS - The Panic Channel
----------------------------------------------------------------------------
Tabbed by: Jimmy
Email: jimi00jimi@hotmail.com

Tuning: Standard

For intro and verses you can play around with the bass sound (low E string) alternating 
F# (Fret 2) and E (open) To do that just press and release your index, but keeping the 
chord.

Verse:
F#                                  Fill 1
Special guest will you come tonight
F#                                  Fill 1
Brief visit from the other side

Pre-chorus:
D               B               F#
I am patient, I am calling you
D               B               F#
In the Teahouse of the Spirits

Chorus:
F#              E
I can feel you
F#              E
I can hear you
F#              E
Give it all up
F#              E
just to be near you
D               B              F#
I am praying, I am calling you

Fill 2 and Fill 3
(I think these are made by the bass, but it adds a lot to the song if you play them)

Verse:
F#                               Fill 1
Why do you walk among the graves
F#                               Fill 1
Between the droplets in the rain

Pre-chorus:
D              B                F#
I am humble, I am calling you
D              B                F#
In the Teahouse of the Spirits

Chorus:
F#              E
I can feel you
F#              E
I can hear you
F#              E
Give it all up
F#              E
just to be near you
D               B              F#
I am praying, I am calling you

Fill 2 and Fill 3


Outro/Solo:
    D                E     B                E     
             E     B
b|--------------------------------------------------------------------------------|
g|--11----14~--------13~---11----14~--------13~---10---15~--------13~---10--------|
D|-----12------12h14----------12------12h14---------12-----12h14-----------12-----|
A|----------------------------------------------------------------------------14--|
E|--------------------------------------------------------------------------------|

            E     D                C#    B           
   A     Bb
b|----------------------------------------------------------------------------|
g|----------13~---11----14~--------13~---11---14~--------13~---10----15~b16---|
D|--12h14-----------12------12h14-----------12-----12h14-----------12---------|
A|----------------------------------------------------------------------------|
E|----------------------------------------------------------------------------|

Verse:
F#
From the silence comes the sound
F#
The underdrone beneath the crowd

Pre-chorus:
D             B              F#
I am ready, I am calling you

Chorus:
F#              E
I can feel you
F#              E
I can hear you
F#              E
Give it all up
F#              E
just to be near you

D               B               F#    Fill 4
I am praying, I am calling you
D               B               F#
I am praying, I am calling you

F#              E
I am calling you
F#              E
I am calling you
F#              E
I am calling you

Fill 1
g|-----0------|
D|-2-4-5~-----|
A|------------|
E|------------|

Fill 2
g|------------|
D|---------2~-|
A|-1-2-4------|
E|------------|

Fill 3
g|------------|
D|-4~-2-----2~|
A|------4-2---|
E|------------|

Fill 4

b|-----------------------12~--10~---|
g|-11~-9~—8h9p8---------------------|
D|---------------8h9p8--------------|
A|----------------------------------|

Jim
Добавлено: 22.07.2012
Другие материалы по этой песне:
  • Аккорды и текст

Страница создана 22.07.2012
http://primanota.ru/the-panic-channel/teahouse-of-the-spirits-chords.htm
Привет, Гость.
Предлагаем пройти революционный курс по гитаре.
Подарок от PrimaNota.Ru, забирай!