PrimaNota.ru - самый крупный в мире бесплатный архив песенных текстов, аккордов, табулатур и нот


The Pains Of Being Pure At Heart - Kurt Cobains Cardigan - таба, видео

Регистрация Запомнить меня
Войти через:  Facebook Google Twitter Vk Yandex Mail.ru

The Pains Of Being Pure At Heart - Kurt Cobains Cardigan - таба, видео

Печатать
Просмотров: 107
----------------------------------------------------------------------------
        Kurt Cobain's Cardigan - The Pains Of Being Pure At Heart
----------------------------------------------------------------------------
Tabbed by: adslam3

This was a single, but not from any of their albums.
This tab is essentially the live version, you can watch it here:
http://www.youtube.com/watch?v=XAIy0I9FbEQ

I've got both guitars on this tab.  The first is guitar 1 (Kip) who
plays power chords for the whole song. The second guitar (Chris) is
towards the bottom.  His piece uses a capo on 2nd fret.

NOTE: I've seen Kip play an A5 on the 12 fret for the verses
sometimes, if you choose to play it then it is - 12 14 14 - -.


Tuning: Standard

INTRO/VERSE - Repeat as necessary
   E5      B5      E5      B5     E5       B5      A5      B5
e|-----------------------------------------------------------------|
B|-----------------------------------------------------------------|
G|-9-9-9-9---------9-9-9-9---------9-9-9-9-------------------------|
D|-9-9-9-9-9-9-9-9-9-9-9-9-9-9-9-9-9-9-9-9-9-9-9-9-7-7-7-7-9-9-9-9-|
A|-7-7-7-7-9-9-9-9-7-7-7-7-9-9-9-9-7-7-7-7-9-9-9-9-7-7-7-7-9-9-9-9-|
E|---------7-7-7-7---------7-7-7-7---------7-7-7-7-5-5-5-5-7-7-7-7-|

CHORUS
   A5              B5              E5
e|-------------------------------------------------|
B|-------------------------------------------------|
G|---------------------------------9-9-9-9-9-9-9-9-|
D|-7-7-7-7-7-7-7-7-9-9-9-9-9-9-9-9-9-9-9-9-9-9-9-9-|
A|-7-7-7-7-7-7-7-7-9-9-9-9-9-9-9-9-7-7-7-7-7-7-7-7-|
E|-5-5-5-5-5-5-5-5-7-7-7-7-7-7-7-7-----------------|
   F#5                     A5              B5
e|---------------------------------------------------------|
B|---------------------------------------------------------|
G|-11-11-11-11-11-11-11-11---------------------------------|
D|-11-11-11-11-11-11-11-11-7-7-7-7-7-7-7-7-9-9-9-9-9-9-9-9-|
A|-9--9--9--9--9--9--9--9--7-7-7-7-7-7-7-7-9-9-9-9-9-9-9-9-|
E|-------------------------5-5-5-5-5-5-5-5-7-7-7-7-7-7-7-7-|
   A5              B5              E5
e|-------------------------------------------------|
B|-------------------------------------------------|
G|---------------------------------9-9-9-9-9-9-9-9-|
D|-7-7-7-7-7-7-7-7-9-9-9-9-9-9-9-9-9-9-9-9-9-9-9-9-|
A|-7-7-7-7-7-7-7-7-9-9-9-9-9-9-9-9-7-7-7-7-7-7-7-7-|
E|-5-5-5-5-5-5-5-5-7-7-7-7-7-7-7-7-----------------|
   F#5                     A5              B5
e|---------------------------------------------------------|
B|---------------------------------------------------------|
G|-11-11-11-11-11-11-11-11---------------------------------|
D|-11-11-11-11-11-11-11-11-7-7-7-7-7-7-7-7-9-9-9-9-9-9-9-9-|
A|-9--9--9--9--9--9--9--9--7-7-7-7-7-7-7-7-9-9-9-9-9-9-9-9-|
E|-------------------------5-5-5-5-5-5-5-5-7-7-7-7-7-7-7-7-|

REPEAT VERSE

LAST CHORUS
   A5              B5              E5
e|-------------------------------------------------|
B|-------------------------------------------------|
G|---------------------------------9-9-9-9-9-9-9-9-|
D|-7-7-7-7-7-7-7-7-9-9-9-9-9-9-9-9-9-9-9-9-9-9-9-9-|
A|-7-7-7-7-7-7-7-7-9-9-9-9-9-9-9-9-7-7-7-7-7-7-7-7-|
E|-5-5-5-5-5-5-5-5-7-7-7-7-7-7-7-7-----------------|
   F#5                     A5              B5
e|---------------------------------------------------------|
B|---------------------------------------------------------|
G|-11-11-11-11-11-11-11-11---------------------------------|
D|-11-11-11-11-11-11-11-11-7-7-7-7-7-7-7-7-9-9-9-9-9-9-9-9-|
A|-9--9--9--9--9--9--9--9--7-7-7-7-7-7-7-7-9-9-9-9-9-9-9-9-|
E|-------------------------5-5-5-5-5-5-5-5-7-7-7-7-7-7-7-7-|
   A5              B5              E5
e|-------------------------------------------------|
B|-------------------------------------------------|
G|---------------------------------9-9-9-9-9-9-9-9-|
D|-7-7-7-7-7-7-7-7-9-9-9-9-9-9-9-9-9-9-9-9-9-9-9-9-|
A|-7-7-7-7-7-7-7-7-9-9-9-9-9-9-9-9-7-7-7-7-7-7-7-7-|
E|-5-5-5-5-5-5-5-5-7-7-7-7-7-7-7-7-----------------|
   F#5                     A5              B5
e|---------------------------------------------------------|
B|---------------------------------------------------------|
G|-11-11-11-11-11-11-11-11---------------------------------|
D|-11-11-11-11-11-11-11-11-7-7-7-7-7-7-7-7-9-9-9-9-9-9-9-9-|
A|-9--9--9--9--9--9--9--9--7-7-7-7-7-7-7-7-9-9-9-9-9-9-9-9-|
E|-------------------------5-5-5-5-5-5-5-5-7-7-7-7-7-7-7-7-|
   G#5             A5              F#5             B5
e|-----------------------------------------------------------------|
B|-----------------------------------------------------------------|
G|-----------------------------------------------------------------|
D|-6-6-6-6-6-6-6-6-7-7-7-7-7-7-7-7-4-4-4-4-4-4-4-4-9-9-9-9-9-9-9-9-|
A|-6-6-6-6-6-6-6-6-7-7-7-7-7-7-7-7-4-4-4-4-4-4-4-4-9-9-9-9-9-9-9-9-|
E|-4-4-4-4-4-4-4-4-5-5-5-5-5-5-5-5-2-2-2-2-2-2-2-2-7-7-7-7-7-7-7-7-|

Repeat verse until END.  End on an E5 chord.



GUITAR 2
Tuning: Standard with capo on 2 - All chords relative to capo.

NOTE: you'll notice that sometime the 2nd guitarist lifts his
3rd finger (ring finger) on and off the B string on the Asus7
for the verse part.

INTRO/VERSE - Repeat as necessary
   D       Asus7   D       Asus7   D       Asus7   G       Asus7
e|-2-2-2-2-0-0-0-0-2-2-2-2-0-0-0-0-2-2-2-2-0-0-0-0-0-0-0-0-0-0-0-0-|
B|-3-3-3-3-3-3-3-3-3-3-3-3-3-3-3-3-3-3-3-3-3-3-3-3-3-3-3-3-3-3-3-3-|
G|-2-2-2-2-2-2-2-2-2-2-2-2-2-2-2-2-2-2-2-2-2-2-2-2-0-0-0-0-2-2-2-2-|
D|-0-0-0-0-2-2-2-2-0-0-0-0-2-2-2-2-0-0-0-0-2-2-2-2-0-0-0-0-2-2-2-2-|
A|---------0-0-0-0---------0-0-0-0---------0-0-0-0-2-2-2-2-0-0-0-0-|
E|-------------------------------------------------3-3-3-3---------|

CHORUS
   G               Asus7           D
e|-0-0-0-0-0-0-0-0-0-0-0-0-0-0-0-0-2-2-2-2-2-2-2-2-|
B|-3-3-3-3-3-3-3-3-3-3-3-3-3-3-3-3-3-3-3-3-3-3-3-3-|
G|-0-0-0-0-0-0-0-0-2-2-2-2-2-2-2-2-2-2-2-2-2-2-2-2-|
D|-0-0-0-0-0-0-0-0-2-2-2-2-2-2-2-2-0-0-0-0-0-0-0-0-|
A|-2-2-2-2-2-2-2-2-0-0-0-0-0-0-0-0-----------------|
E|-3-3-3-3-3-3-3-3---------------------------------|
   Em7             G               Asus7
e|-0-0-0-0-0-0-0-0-0-0-0-0-0-0-0-0-0-0-0-0-0-0-0-0-|
B|-3-3-3-3-3-3-3-3-3-3-3-3-3-3-3-3-3-3-3-3-3-3-3-3-|
G|-0-0-0-0-0-0-0-0-0-0-0-0-0-0-0-0-2-2-2-2-2-2-2-2-|
D|-2-2-2-2-2-2-2-2-0-0-0-0-0-0-0-0-2-2-2-2-2-2-2-2-|
A|-2-2-2-2-2-2-2-2-2-2-2-2-2-2-2-2-0-0-0-0-0-0-0-0-|
E|-0-0-0-0-0-0-0-0-3-3-3-3-3-3-3-3-----------------|
   G               Asus7           D
e|-0-0-0-0-0-0-0-0-0-0-0-0-0-0-0-0-2-2-2-2-2-2-2-2-|
B|-3-3-3-3-3-3-3-3-3-3-3-3-3-3-3-3-3-3-3-3-3-3-3-3-|
G|-0-0-0-0-0-0-0-0-2-2-2-2-2-2-2-2-2-2-2-2-2-2-2-2-|
D|-0-0-0-0-0-0-0-0-2-2-2-2-2-2-2-2-0-0-0-0-0-0-0-0-|
A|-2-2-2-2-2-2-2-2-0-0-0-0-0-0-0-0-----------------|
E|-3-3-3-3-3-3-3-3---------------------------------|
   Em7             G               Asus7
e|-0-0-0-0-0-0-0-0-0-0-0-0-0-0-0-0-0-0-0-0-0-0-0-0-|
B|-3-3-3-3-3-3-3-3-3-3-3-3-3-3-3-3-3-3-3-3-3-3-3-3-|
G|-0-0-0-0-0-0-0-0-0-0-0-0-0-0-0-0-2-2-2-2-2-2-2-2-|
D|-2-2-2-2-2-2-2-2-0-0-0-0-0-0-0-0-2-2-2-2-2-2-2-2-|
A|-2-2-2-2-2-2-2-2-2-2-2-2-2-2-2-2-0-0-0-0-0-0-0-0-|
E|-0-0-0-0-0-0-0-0-3-3-3-3-3-3-3-3-----------------|

REPEAT VERSE

LAST CHORUS
   G               Asus7           D
e|-0-0-0-0-0-0-0-0-0-0-0-0-0-0-0-0-2-2-2-2-2-2-2-2-|
B|-3-3-3-3-3-3-3-3-3-3-3-3-3-3-3-3-3-3-3-3-3-3-3-3-|
G|-0-0-0-0-0-0-0-0-2-2-2-2-2-2-2-2-2-2-2-2-2-2-2-2-|
D|-0-0-0-0-0-0-0-0-2-2-2-2-2-2-2-2-0-0-0-0-0-0-0-0-|
A|-2-2-2-2-2-2-2-2-0-0-0-0-0-0-0-0-----------------|
E|-3-3-3-3-3-3-3-3---------------------------------|
   Em7             G               Asus7
e|-0-0-0-0-0-0-0-0-0-0-0-0-0-0-0-0-0-0-0-0-0-0-0-0-|
B|-3-3-3-3-3-3-3-3-3-3-3-3-3-3-3-3-3-3-3-3-3-3-3-3-|
G|-0-0-0-0-0-0-0-0-0-0-0-0-0-0-0-0-2-2-2-2-2-2-2-2-|
D|-2-2-2-2-2-2-2-2-0-0-0-0-0-0-0-0-2-2-2-2-2-2-2-2-|
A|-2-2-2-2-2-2-2-2-2-2-2-2-2-2-2-2-0-0-0-0-0-0-0-0-|
E|-0-0-0-0-0-0-0-0-3-3-3-3-3-3-3-3-----------------|
   G               Asus7           D
e|-0-0-0-0-0-0-0-0-0-0-0-0-0-0-0-0-2-2-2-2-2-2-2-2-|
B|-3-3-3-3-3-3-3-3-3-3-3-3-3-3-3-3-3-3-3-3-3-3-3-3-|
G|-0-0-0-0-0-0-0-0-2-2-2-2-2-2-2-2-2-2-2-2-2-2-2-2-|
D|-0-0-0-0-0-0-0-0-2-2-2-2-2-2-2-2-0-0-0-0-0-0-0-0-|
A|-2-2-2-2-2-2-2-2-0-0-0-0-0-0-0-0-----------------|
E|-3-3-3-3-3-3-3-3---------------------------------|
   Em7             G               Asus7
e|-0-0-0-0-0-0-0-0-0-0-0-0-0-0-0-0-0-0-0-0-0-0-0-0-|
B|-3-3-3-3-3-3-3-3-3-3-3-3-3-3-3-3-3-3-3-3-3-3-3-3-|
G|-0-0-0-0-0-0-0-0-0-0-0-0-0-0-0-0-2-2-2-2-2-2-2-2-|
D|-2-2-2-2-2-2-2-2-0-0-0-0-0-0-0-0-2-2-2-2-2-2-2-2-|
A|-2-2-2-2-2-2-2-2-2-2-2-2-2-2-2-2-0-0-0-0-0-0-0-0-|
E|-0-0-0-0-0-0-0-0-3-3-3-3-3-3-3-3-----------------|
   F#m             G               Em7             Asus7
e|-2-2-2-2-2-2-2-2-3-3-3-3-3-3-3-3-0-0-0-0-0-0-0-0-0-0-0-0-0-0-0-0-|
B|-2-2-2-2-2-2-2-2-3-3-3-3-3-3-3-3-3-3-3-3-3-3-3-3-3-3-3-3-3-3-3-3-|
G|-2-2-2-2-2-2-2-2-4-4-4-4-4-4-4-4-0-0-0-0-0-0-0-0-2-2-2-2-2-2-2-2-|
D|-4-4-4-4-4-4-4-4-5-5-5-5-5-5-5-5-2-2-2-2-2-2-2-2-2-2-2-2-2-2-2-2-|
A|-4-4-4-4-4-4-4-4-5-5-5-5-5-5-5-5-2-2-2-2-2-2-2-2-0-0-0-0-0-0-0-0-|
E|-2-2-2-2-2-2-2-2-3-3-3-3-3-3-3-3-0-0-0-0-0-0-0-0-----------------|

Repeat verse until end. End on D chord.
Добавлено: 01.10.2013
Другие материалы по этой песне:
  • Аккорды и текст

Страница создана 01.10.2013
http://primanota.ru/the-pains-of-being-pure-at-heart/kurt-cobains-cardigan-chords.htm
Привет, Гость.
Предлагаем пройти революционный курс по гитаре.
Подарок от PrimaNota.Ru, забирай!