PrimaNota.ru - самый крупный в мире бесплатный архив песенных текстов, аккордов, табулатур и нот


The Pains Of Being Pure At Heart - Heavens Gonna Happen Now - таба, видео

Регистрация Запомнить меня
Войти через:  Facebook Google Twitter Vk Yandex Mail.ru

The Pains Of Being Pure At Heart - Heavens Gonna Happen Now - таба, видео

Печатать
Просмотров: 103
Уроки эстрадного вокала в Санкт-Петербурге
Авторы: Christoph Hochheim, Alex Naidus, Peggy Wang, Kurt Feldman, Kip Bergman

Artist : The Pains of Being Pure at Heart
Song : Heaven's Gonna Happen Now
Album : Belong (2011)
Tabbed by : Rowell


Capo 2. Standard tuning.

Intro 


   G
e|----------------------------------------------------------------|
B|-0----0----0--------1-----3-------------------------------------|
G|--------------0-------------------------------------------------|
D|---0----0--------0-----0----------------------------------------|
A|----------------------------------------------------------------|
E|----------------------------------------------------------------|



Verse:
C
Justine, you're dying just to hear the sound
G
and dreaming of another town
F                             C
'cuz nothing here is going on

C
Write now, 'cause all your real friends are words
G
You've never ever been so sure
F                             C        G
that what you've got can't be cured



Chorus:
Am       F                       C     G
And now, nothing's gonna turn us down
Am                      F
You can't sit there and look scared
C                           G
when everything's happening now

Am       F                        C    G
Come on, nothing's gonna turn us down
Am                            F
So don't stand there like you don't care
C                           G
'cause heaven's gonna happen now


     C                          G
e|-------------------------------------------0--1-0-------------|
B|---1h3-3-3-3-1--1h3-3-3-3-1---1h3-3-3-3-1---------3--1-1------|
G|--------------------------------------------------------------|
D|--------------------------------------------------------------|
A|--------------------------------------------------------------|
E|--------------------------------------------------------------|

     Am                         F
e|-------------------------------------------3--1-0--1-0--------|
B|---1h3-3-3-3-1--1h3-3-3-3-1---1h3-3-3-3-1--------------3--1---|
G|--------------------------------------------------------------|
D|--------------------------------------------------------------|
A|--------------------------------------------------------------|
E|--------------------------------------------------------------|


Same chords for the rest of the verses and choruses.
Добавлено: 17.08.2013
Другие материалы по этой песне:
  • Аккорды и текст

Страница создана 17.08.2013
http://primanota.ru/the-pains-of-being-pure-at-heart/heavens-gonna-happen-now-chords.htm
Привет, Гость.
Предлагаем пройти революционный курс по гитаре.
Подарок от PrimaNota.Ru, забирай!