PrimaNota.ru - самый крупный в мире бесплатный архив песенных текстов, аккордов, табулатур и нот


The Pack Ad - Seasick - таба, видео

Регистрация Запомнить меня
Войти через:  Facebook Google Twitter Vk Yandex Mail.ru

The Pack Ad - Seasick - таба, видео

Печатать
Просмотров: 175
-----------------------------------------------------------------------------
                             SEASICK - The Pack A.D.
-----------------------------------------------------------------------------

Tabbed by: goatsandmonkeys
E-mail: rsjhenwood@hotmail.com

Tuning: Standard


Intro:

e|--------------------------------------------------------------------------|
B|--------------------------------------------------------------------------|
G|---9--9------8--8------9--9------8--8------9--9------8--8------1---1---1--|
D|---x--x------x--x------x--x------x--x------x--x------x--x------2---2---2--|
A|---10-10-----9--9------10-10-----9--9------10-10-----9--9------2---2---2--|
E|---8--8------7--7------8--8------7--7------8--8------7--7------0---0---0--|


Verse:

e|--------------------------------------------------------------------------|
B|--------------------------------------------------------------------------|
G|---1--1------4-4-4--4-4-4--------1-1-1---1-1-1-------4-4-4--4-4-4---------|
D----2--2------x-x-x--x-x-x--------2-2-2---2-2-2-------x-x-x--x-x-x---------|
A|---2--2------5-5-5--5-5-5--------2-2-2---2-2-2-------5-5-5--5-5-5---------|
E|---0--0-2-3--3-3-3--3-3-3-3-2-0--0-0-0---0-0-0-2-3---3-3-3--3-3-3-3-2-0---|

e|-----------------------------|
B|-----------------------------|
G|---1-1-1---1-1-1-------------|
D|---2-2-2---2-2-2---0-2-0-----|
A|---2-2-2---2-2-2---------2---|
E|---0-0-0---0-0-0-------------|


Pre-chorus:

e|--------------------------------------------------------------------------|
B|--------------------------------------------------------------------------|
G|---9--9-------8--8-------9--9-------8--8-------9--9-------8--8-------1----|
D|---x--x-------x--x-------x--x-------x--x-------x--x-------x--x-------2----|
A|---10-10------9--9-------10-10------9--9-------10-10------9--9-------2----|
E|---8--8-------7--7-------8--8-------7--7-------8--8-------7--7-------0----|


Chorus:

e|--------------------------------------------------------------------------|
B|--------------------------------------------------------------------------|
G|------------1-1--------9--9-----4--4-----9--9-----4--4-----9--9----4--4---|
D|---------2--2-2--------x--x-----x--x-----x--x-----x--x-----x--x----x--x---|
A|------2--2--2-2--------10-10----5--5-----10-10----5--5-----10-10---5--5---|
E|---0--0--0--0-0-0-2-3--8--8-----3--3-----8--8-----3--3-----8--8----3--3---|

e|--------------------------------------------------------------------------|
B|--------------------------------------------------------------------------|
G|--6-6---6-6-6-6-6-6-----9--9-----4--4-----9--9-----4-4-----9--9-----4--4--|
D|--x-x---x-x-x-x-x-x-----x--x-----x--x-----x--x-----x-x-----x--x-----x--x--|
A|--7-7---7-7-7-7-7-7-----10-10----5--5-----10-10----5-5-----10-10----5--5--|
E|--5-5---5-5-5-5-5-5-----8--8-----3--3-----8--8-----3-3-----8--8-----3--3--|

e|---------------------------------------------------|
B|---------------------------------------------------|
G|---8-----8-----8-----8-----1-----1-----1-----------|
D|---x-----x-----x-----x-----2-----2-----2-----------|
A|---9-----9-----9-----9-----2-----2-----2-----------|
E|---7-----7-----7-----7-----0-----0-----0---0-2-3---|



Parts in order:

Intro

Verse 1:
Maybe I've been down this road
Maybe I've been chasing shadows
and I've taken on too much blame
We take apart things just to rebuild
Like making life just to kill
and they're knockin' down walls again

Pre-Chorus:
I won't
be the
one to
clean up
this mess
when you're
gone

Verse 2:
And you can do whatever you want
Your entire life can be a con
if you just don't grow anywhere
We can take safety in a number
and file it all away under summer
but how's it gonna fit when it tears?

Pre-Chorus

Chorus:
I'd rather be seasick
than stuck in this shit
There's no cure for idiocy
But all the nerve escapes me
and I become mute
and realize the idiot is me

Verse 3:
Well none of us are traitors 'til we are
maybe our change can be on par
only some of us come off like stars
I can take part in this tragedy
I don't think it's all you, it's mostly me
It seems we never knew each other

Pre-Chorus

Chorus (x2)

Pre-Chorus/Outro
Добавлено: 10.08.2013
Другие материалы по этой песне:
  • Аккорды и текст

Страница создана 10.08.2013
http://primanota.ru/the-pack-ad/seasick-chords.htm
Привет, Гость.
Предлагаем пройти революционный курс по гитаре.
Подарок от PrimaNota.Ru, забирай!