PrimaNota.ru - самый крупный в мире бесплатный архив песенных текстов, аккордов, табулатур и нот


The Pack Ad - Pieces - таба, видео

Регистрация Запомнить меня
Войти через:  Facebook Google Twitter Vk Yandex Mail.ru

The Pack Ad - Pieces - таба, видео

Печатать
Просмотров: 231
Уроки эстрадного вокала в Санкт-Петербурге
-------------------------------------------------------------------------------
                             PIECES - The Pack A.D.
-------------------------------------------------------------------------------
Tabbed by: goatsandmonkeys
E-mail: rsjhenwood@hotmail.com

Tuning: Standard

Super simple song to play, but sounds great. Enjoy :)


Intro/Verse:
e|----------------------------------------------|
B|-------8--------------------------------------|
G|-------x---------8-----------11-----------4---|
D|-------9---------x-----------x------------x---|
A|---7-------------9-----------12-----------5---|
E|-----------5/7--------7/10----------2/3-------|

(There's some kind of delay effect used in the intro)


Chorus:
e|------------------------------------------------|
B|---8---8-8--------------------------------------|
G|---x---x-x---8---8-8--8--11---11-11---4---4-4---|
D|---9---9-9-0-x---x-x--x---x----x--x---x---x-x---|
A|---7---7-7-0-9---9-9--9--12---12-12-0-5---5-5---|
E|-------------7---7-7--7/-10---10-10-0-3---3-3---|


The pre-chorus is the same as the verses,
but with this melody played over it:
e|--------------------------------|
B|-----8---7------7---------------|
G|--------------9-----------4h5---|
D|--------------------------------|
A|--------------------------------|
E---------------------------------|

Outro/final chords:
e|---------------------|
B|---------------------|
G|---4------6------8---|
D|---x------x------x---|
A|---5------7------9---|
E|---3------5------7---|


Parts in order:

Intro

Verse:
Making deadlines, I fail
I fail
Making mistakes, I excel
Excel
Faking interest?
It's hard to tell
Such an invalid, oh well
Oh well

Chorus:
Hold everything to pieces (x4)

Verse:
Hearing bad news I shrug
I shrug
Caring's there, I guess
I guess
It's hard under duress
Duress
Such a phony, oh well
Oh well

Chorus

Verse:
Taking the blame I win
I win
Playing the game again
Again
I tried to run, I fell
I fell
Dust me off, oh well
Oh well

Chorus

Verse 4

Chorus

Pre-chorus

Outro
Добавлено: 29.11.2013
Другие материалы по этой песне:
  • Аккорды и текст

Страница создана 29.11.2013
http://primanota.ru/the-pack-ad/pieces-chords.htm
Привет, Гость.
Предлагаем пройти революционный курс по гитаре.
Подарок от PrimaNota.Ru, забирай!