PrimaNota.ru - самый крупный в мире бесплатный архив песенных текстов, аккордов, табулатур и нот


The Pack Ad - Oh Be Joyful - таба, видео

Регистрация Запомнить меня
Войти через:  Facebook Google Twitter Vk Yandex Mail.ru

The Pack Ad - Oh Be Joyful - таба, видео

Печатать
Просмотров: 113
                             OH BE JOYFUL - The Pack A.D.
-------------------------------------------------------------------------------
Tabbed by: goatsandmonkeys
E-mail: rsjhenwood@hotmail.com

Listen to the song to get the timing right :)

Tuning: Standard

        
Verse:
e|---------x--------x--------x--------x--------------------------------------|
B|---------x--------x--------x--------x--------------------------------------|
G|---------3--------x--------3--------x--------------------------------------|
D|---------x--0-5-5-5--0-----x--0-5-5-5--------------------------------------|
A|-----5-5-5--0-3-3-3--0-5-5-5--0-3-3-3--------------------------------------|
E|-----3-3-3-------------3-3-3-----------------------------------------------|
        p.m. . . . . . . . . . . . . . . .

Chorus:
e|---------------------------------------------------------------------------|
B|---------------------------------------------------------------------------|
G|---------------------------------------------------------------------------|
D|----12-12-12-12-12-12---10----------12-12-12-12-12-12---10-----------------|
A|----10-10-10-10-10-10---8---8-------10-10-10-10-10-10---8---8--------------|
E|----------------------------6-------------------------------6--------------|

e|---------------------------------------------------------------------------|
B|---------------------------------------------------------------------------|
G|---------------------------------------------------------------------------|
D|-----5-5-5-5-5-5--7--------------5-5-5-5-5-5--7----------------------------|
A|-----3-3-3-3-3-3--5---8---5------3-3-3-3-3-3--5---8------------------------|
E|----------------------6---3-----------------------6----3\1-----------------|

Bridge/outro:
e|---------x--------x--------x--------x--------x---x-x-x----x-x-x-x-x-x-x-x--|
B|---------x--------x--------x--------x--------x---x-x-x----x-x-x-x-x-x-x-x--|
G|---------3--------x--------3--------x--------1---x-x-x----4-4-4-4-4-4-4-4--|
D|---------x--0-5-5-5--0-----x--0-5-5-5--0-----3-0-3-3-3--0-x-x-x-x-x-x-x-x--|
A|-----5-5-5--0-3-3-3--0-5-5-5--0-3-3-3--0-3-3-3-0-1-1-1--0-5-5-5-5-5-5-5-5--|
E|-----3-3-3-------------3-3-3-------------1-1-1------------3-3-3-3-3-3-3-3--|
        p.m. . . . . . . . . . . . . . . . . . . . . . . . . . . . . . . . . .


e|-----------x-------x----x-x-x-x-x-x-x-x------------------------------------|
B|-----------x-------x----x-x-x-x-x-x-x-x------------------------------------|
G|-----------1-------x----4-4-4-4-4-4-4-4------------------------------------|
D|-----0-----3-0-3-3-3--0-x-x-x-x-x-x-x-x------------------------------------|
A|-----0-3-3-3-0-1-1-1--0-5-5-5-5-5-5-5-5------------------------------------|
E|-------1-1-1------------3-3-3-3-3-3-3-3------------------------------------|


Добавлено: 11.08.2013
Другие материалы по этой песне:
  • Аккорды и текст

Страница создана 11.08.2013
http://primanota.ru/the-pack-ad/oh-be-joyful-chords.htm
Привет, Гость.
Предлагаем пройти революционный курс по гитаре.
Подарок от PrimaNota.Ru, забирай!