PrimaNota.ru - самый крупный в мире бесплатный архив песенных текстов, аккордов, табулатур и нот


The Pack Ad - Everyone Looks Like Everyone - таба, видео

Регистрация Запомнить меня
Войти через:  Facebook Google Twitter Vk Yandex Mail.ru

The Pack Ad - Everyone Looks Like Everyone - таба, видео

Печатать
Просмотров: 157
Уроки эстрадного вокала в Санкт-Петербурге
Song: Everyone Looks Like Everyone
Artist: The Pack A.D.
Album: We Kill Computers
Tabbed by: goatsandmonkeys
E-mail: rsjhenwood@hotmail.com

Tuning: Standard

This song is very easy and very fun to play. :)



The whole song is played with these chords, staccato in the first 3 verses (lyric lines 1-3).

e|--------------------------------------------------|
B|--------------------------------------------------|
G|------9--------------7--------------2-------------|
D|--------------------------------------------------|
A|---------10--------------8---------------3--------|
E|-----8--------------6---------------1-------------|

Then lines 4-5 are:

e|--------------------------------------------------|
B|--------------------------------------------------|
G|--------5-------------7-----------2---------------|
D|--------------------------------------------------|
A|----------6-------------8------------3------------|
E|------4-------------6------------1----------------|

Listen to the song for the rhythm of verses 4 and 5


The bridge is played with these chords (again, listen for the rhythm):

e|------x-----------x------------x------------------|
B|------x--10-------x---8--------x---6--------------|
G|------x--10-------x---8--------x---6--------------|
D|------x--10-------x---8--------x---6--------------|
A|------x-----------x------------x------------------|
E|------8-----------6------------4------------------|

(The final verse is played the same as verse 4 and 5, with the last line played
like verses 1-3)


Verse 1:
        The elevator opens for no one
        and plans are making me
        I'm paralyzed into you
        and plans are making me
        and plans are making me

Verse 2:
        Everyone looks like everyone
        just like snowflakes we're already myth
        just too busy to accept it
        and we're already myth
        And we're already myth

Verse 3:
        Everyone looks like everyone
        passing days just like batons
        This one time this friend of mine
        No wait that was me
        No wait that was me

Verse 4:
        The elevator opens for no one
        Its talons are right in me
        Didn't even see it comin'
        For all the just alike birds
        for all the just alike birds

Verse 5:
        If you think this is your story
        Just 'cause you got in the way
        doesn't mean it's your story
        you just got in the way
        You just got in the way


Bridge:
        Hey it's that actor you know the one
        He made that movie you all know so well
        Hey it's that actor you know the one
        He made that movie you all know so well
        So well
        So well

Final Verse:
        The elevator opens for no one
        its talons are right in me
        Didn't even see it comin'
        For we are just alike birds
        For we are just alike birds
        For we are just alike birds
        For we are just alike birds
Добавлено: 16.09.2013
Другие материалы по этой песне:
  • Аккорды и текст

Страница создана 16.09.2013
http://primanota.ru/the-pack-ad/everyone-looks-like-everyone-chords.htm
Привет, Гость.
Предлагаем пройти революционный курс по гитаре.
Подарок от PrimaNota.Ru, забирай!