PrimaNota.ru - самый крупный в мире бесплатный архив песенных текстов, аккордов, табулатур и нот


The Pack Ad - Body Parts - таба, видео

Регистрация Запомнить меня
Войти через:  Facebook Google Twitter Vk Yandex Mail.ru

The Pack Ad - Body Parts - таба, видео

Печатать
Просмотров: 97
-------------------------------------------------------------------------------
                             BODY PARTS - The Pack A.D.
-------------------------------------------------------------------------------

Tabbed by: goatsandmonkeys
E-mail: rsjhenwood@hotmail.com

Tuning: Standard


Intro/Verse:

e|---------------------------------------------------------------------------|
B|---------------------------------------------------------------------------|
G|-----------------------------------------------------------------3--3--3---|
D|-----------------------------------------------------------------x--x--x---|
A|--------7-6--7-------7-6--7------7-6--7-------7-6--7\--4--4--4---4--4--4---|
E|----5-5----------5-5---------5-5----------5-5----------2--2--2---2--2--2---|
      p.m. . . . . . . . . . . . . . . . . . . . . . .

Pre-Chorus:

e|---------------------------------------------------------------------------|
B|---------------------------------------------------------------------------|
G|---------------------------------------------------------------------------|
D|--7---------4---------7---------4---------7---------4---------7-------9-11-|
A|--5-7-7-7---2-4-4-4---5-7-7-7---2-4-4-4---5-7-7-7---2-4-4-4---5-7-7-7-9-11-|
E|----5-5-5-----2-2-2-----5-5-5-----2-2-2-----5-5-5-----2-2-2-----5-5-5-7-9--|

Chorus:

e|---------------------------------------------------------------------------|
B|---------------------------------------------------------------------------|
G|--13--13--13--13-13-13---3--3--3--3-3-3---6--6--6--6-6-6---8--8--8--8-8-8--|
D|--x---x---x---x--x--x----x--x--x--x-x-x---x--x--x--x-x-x---x--x--x--x-x-x--|
A|--12--12--12--12-12-12---4--4--4--4-4-4---7--7--7--7-7-7---9--9--9--9-9-9--|
E|--10--10--10--10-10-10---2--2--2--2-2-2---5--5--5--5-5-5---7--7--7--7-7-7--|

e|---------------------------------------------------------------------------|
B|---------------------------------------------------------------------------|
G|--13--13--13--13-13-13---3--3--3--3-3-3---6--6--6--6-6-6---8--8--8--8-8-8--|
D|--x---x---x---x--x--x----x--x--x--x-x-x---x--x--x--x-x-x---x--x--x--x-x-x--|
A|--12--12--12--12-12-12---4--4--4--4-4-4---7--7--7--7-7-7---9--9--9--9-9-9--|
E|--10--10--10--10-10-10---2--2--2--2-2-2---5--5--5--5-5-5---7--7--7--7-7-7--|

e|---------------------------------------------------------------------------|
B|---------------------------------------------------------------------------|
G|--13--13--13--13-13-13---3--3--3--3-3-3---6--6--6--6-6-6---8--8--8--8-8-8--|
D|--x---x---x---x--x--x----x--x--x--x-x-x---x--x--x--x-x-x---x--x--x--x-x-x--|
A|--12--12--12--12-12-12---4--4--4--4-4-4---7--7--7--7-7-7---9--9--9--9-9-9--|
E|--10--10--10--10-10-10---2--2--2--2-2-2---5--5--5--5-5-5---7--7--7--7-7-7--|

e|---------------------------------------------------------------------------|
B|---------------------------------------------------------------------------|
G|--13--13--13--13-13-13--3--3--3--3-3-3--6--6--6--6-6-6--10-10-10-10-10-10--|
D|--x---x---x---x--x--x---x--x--x--x-x-x--x--x--x--x-x-x--x--x--x--x--x--x---|
A|--12--12--12--12-12-12--4--4--4--4-4-4--7--7--7--7-7-7--11-11-11-11-11-11--|
E|--10--10--10--10-10-10--2--2--2--2-2-2--5--5--5--5-5-5--9--9--9--9--9--9---|

Outro:

e|-----------------------------------------------------------|
B|-----------------------------------------------------------|
G|-------------------------------------------------------3---|
D|-------------------------------------------------------x---|
A|--------7-6--7-------7-6--7------7-6--7-------7-6--7\--4---|
E|----5-5----------5-5---------5-5----------5-5----------2---|
      p.m. . . . . . . . . . . . . . . . . . . . . . .


Parts in order:

Intro

Verse 1:
Scars don't heal overnight
Out of mind, out of sight

Pre-Chorus:
You're such a freak (x8)
Uh-huh

Verse:
New things always shine
Lose things? Well, that's fine

Pre-Chorus

Chorus:
Go on, get your coat and cover up
yourself, you're a disgrace
Barely even human body parts
Will give yourself away (x2)

Verse 3:
Lights make traps for flies
Fooled by death disguise

Pre-Chorus

Chorus (x2)

Outro


Добавлено: 22.09.2013
Другие материалы по этой песне:
  • Аккорды и текст

Страница создана 22.09.2013
http://primanota.ru/the-pack-ad/body-parts-chords.htm
Привет, Гость.
Предлагаем пройти революционный курс по гитаре.
Подарок от PrimaNota.Ru, забирай!