PrimaNota.ru - самый крупный в мире бесплатный архив песенных текстов, аккордов, табулатур и нот


The Otherside Band - Pinangga - таба, видео

Регистрация Запомнить меня
Войти через:  Facebook Google Twitter Vk Yandex Mail.ru

The Otherside Band - Pinangga - таба, видео

Печатать
Просмотров: 95
Уроки эстрадного вокала в Санкт-Петербурге
Band/Artist: The Otherside Band
Song: Pinangga (acoustic version)
Tabbed by: L.G.T

If you wan't to hear this song. Try to open the given link in youtube.  
http://www.youtube.com/watch?v=4XZZy4gvSHI

Intro:
   G                C      
e|---------0----------------|
B|-----3-----3---3------3---|
G|---0----------------0-----|
D|--------------------------|
A|------------------3-------|
E|-3-----3-----3------------|

   G                G/F#             C                D
e|---------0----------------0----------------0-----------------------------|
B|-----3-----3---3------3-----3---3------3-----3---3------3---2---3--------|
G|---0----------------2----------------0----------------2------------------|
D|----------------------------------------------------0-----0---0----------|
A|-----------------------------------3-----3-----3-------------------------|
E|-3-----3-----3----2-----2-----2------------------------------------------|

   G                D                C                D              Dsus4
e|---------0----------------0----------------0-----------------------3-----|
B|-----3-----3---3------3-----3---3------3-----3---3------3---2---3--3-----|
G|---0----------------2----------------0----------------2------------2-----|
D|------------------0-----0-----0---------------------0-----0---0----------|
A|-----------------------------------3-----3-----3-------------------------|
E|-3-----3-----3-----------------------------------------------------------|



Verse:
(Repeat this twice for verse)
   G                D                C                D
e|---------0----------------0----------------0-----------------------------|
B|-----3-----3---3------3-----3---3------3-----3---3------3---2---3--------|
G|---0----------------2----------------0----------------2------------------|
D|------------------0-----0-----0---------------------0-----0---0----------|
A|-----------------------------------3-----3-----3-------------------------|
E|-3-----3-----3-----------------------------------------------------------|
     G              D
Ang kahayag sa imung dagway
C                D
Sama sa bituon sa langit
    G            D
Ang katawa mo naghatag og kalipay 
C               D
Sa akong kasing-kasing

Refrain:
(Play this only in refrain)
    Em               D                 Em               D              
e|----------0----------------0----------------0-----------------------3----|
B|------0-----0---0------3-----3---3------0-----0---0------3---2---3--3----|
G|----0----------------2----------------0----------------2------------2----|
D|-------------------0-----0-----0---------------------0-----0---0---------|
A|-------------------------------------------------------------------------|
E|--0-----0-----0---------------------0-----0-----0------------------------|

    Em             D
Busa inday ayaw kalimti
       Em                 D
Na ang gugma ko walay katapusan

Chorus:
(Repeat this twice for chorus)
   G                D              Em               C     
e|---------0-------------------------------0----------------0--------------|
B|-----3-----3---3------3---2---3------0-----0---0------1-----1---1--------|
G|---0----------------2--------------0----------------0--------------------|
D|------------------0-----0---0--------------------------------------------|
A|--------------------------------------------------3-----3-----3----------|
E|-3-----3-----3-------------------0-----0-----0---------------------------|
          G               D
Miss pinangga ayaw og kawala
   Em                        C
Kay basin'g mabuang ko'g huna-huna
         G                  D
Ay'g isnabi kining akong gugma
          Em              C              
Nga akong ihalad para kanimo oh pinangga

   G                D                C                D              
e|---------0----------------0----------------0-----------------------3-----|
B|-----3-----3---3------3-----3---3------3-----3---3------3---2---3--3-----|
G|---0----------------2----------------0----------------2------------2-----|
D|------------------0-----0-----0---------------------0-----0---0----------|
A|-----------------------------------3-----3-----3-------------------------|
E|-3-----3-----3-----------------------------------------------------------|


Verse:
    G             D
Ang hamis mo nga kutis 
C          D
Sama ni janice
    G           D
Ang humot mong buhok 
C                D
Nga gisabunan og perla

Refrain:
    Em               D
Busa inday ayaw'g kalimti
      Em                  D
Na ang gugma ko walay kahumanan

Chorus:
          G               D
Miss pinangga ayaw og kawala
   Em                        C
Kay basin'g mabuang ko'g huna-huna
         G                  D
Ay'g isnabi kining akong gugma
          Em              C             
Nga akong ihalad para kanimo
       G                D
Oh pinangga ayaw og kawala
   Em                        C
Kay basin'g mabuang ko'g huna-huna
         G                  D
Ay'g isnabi kining akong gugma
          Em              C             
Nga akong ihalad para kanimo
         Em   C
Oh pinangga
      Em   C
Pinangga
      Em   C
Pinangga
      Em  D   C
Pinangga ahhh ahh

          G               D
Miss pinangga ayaw og kawala
   Em                        C
Kay basin'g mabuang ko'g huna-huna...

Chorus:
          G               D
Miss pinangga ayaw og kawala
   Em                        C
Kay basin'g mabuang ko'g huna-huna
         G                  D
Ay'g isnabi kining akong gugma
          Em              C             
Nga akong ihalad para kanimo
         Em   C
Oh pinangga
      Em   C
Pinangga
      Em   C
Pinangga
      Em  D   C
Pinangga ahhh ahh

Добавлено: 19.10.2013
Другие материалы по этой песне:
  • Аккорды и текст

Страница создана 19.10.2013
http://primanota.ru/the-otherside-band/pinangga-chords.htm
Привет, Гость.
Предлагаем пройти революционный курс по гитаре.
Подарок от PrimaNota.Ru, забирай!