PrimaNota.ru - самый крупный в мире бесплатный архив песенных текстов, аккордов, табулатур и нот


The Osborne Brothers - Rum - таба, видео

Регистрация Запомнить меня
Войти через:  Facebook Google Twitter Vk Yandex Mail.ru

The Osborne Brothers - Rum - таба, видео

Печатать
Просмотров: 154
Новый альбом группы 'Черный Кузнец' по культовому сериалу 'Сверхъестественное'!
-------------------------------------------------------------------------------
                             RUM - Brothers Osborne
-------------------------------------------------------------------------------
Tabbed by: Riley McCormick
E-mail: riley.mccormick6@gmail.com

Tuning: Capo 1, Drop D
I'll post the full tab once I have time to write it out, but for now, have fun with this!

e|---------------------------------------------------------------------------|
B|---------------------------------------------------------------------------|
G|---------------------------------------------------------------------------|
D|---------------------------------------------------------------------------|
A|---0h2-0-----2/5-5--------------------2/5-5-------------------2/5--5-------|
D|----------0---------0-----7h9--9--0-----------0-----7h9-9--0-----------0----
                  

e|---------------------------------------------------------------------------|
B|---------------------------------------------------------------------------|
G|---------------------------------------------------------------------------|
D|---------------------------------------------------------------------------|
A|--------------2/5-5------------------2/5-5-----------------2/5-5-----------|
D|--7h9--9--0----------0----7h9--9--0---------0---7h9--9--0---------0--------|


e|---------------------------------------------------------------------------|
B|---------------------------------------------------------------------------|
G|---------------------------------------------------------------------------|
D|---------------------------------------------------------------------------|
A|--------------2/5-5--------2/5-5------2/5-5-------2/5-5--------------------|
E|--7h9--9--0----------0------------0----------0-----------0-----------------|



************************************

| /   slide up
| \   slide down
| h   hammer-on
| p   pull-off
| ~   vibrato
| +   harmonic
| x   Mute note
| b   Bend
| pb  Pre-bend
| br  Bend release
| pbr Pre-bend release
| brb Bend release bend

************************************
Добавлено: 18.10.2014
Другие материалы по этой песне:

Страница создана 18.10.2014
http://primanota.ru/the-osborne-brothers/rum-chords.htm
Привет, Гость.
Предлагаем пройти революционный курс по гитаре.
Подарок от PrimaNota.Ru, забирай!