PrimaNota.ru - самый крупный в мире бесплатный архив песенных текстов, аккордов, табулатур и нот


The Osborne Brothers - Pawn Shop - аккорды и текст, видео

Регистрация Запомнить меня
Войти через:  Facebook Google Twitter Vk Yandex Mail.ru

The Osborne Brothers - Pawn Shop - аккорды и текст, видео

Печатать
Просмотров: 70
Pawn Shop
The Osborne Brothers
"Pawn Shop"
Brothers Osborne
Pawn Shop (2016)

Intro:
        Main Riff:
        Also played over all Gm chords
        ------------------------------------------
        ------------------------------------------
        ------------------------------------------
        ------------------------------------------ x2
        -----------------1------------------------
        ---1/3---3---3-------3-----3--------------

        Fill 1:
        ------------|----------------------------|
        ------------|----------------------------|
        ------------|----------------------------|
        ---------3/-|--5-----3--0----------------|
        ------------|--------------3-------------|
        ------------|--------------------3\------|
        
        Main Riff again:
        ------------------------------------------
        ------------------------------------------
        ------------------------------------------
        ------------------------------------------ x2
        -----------------1------------------------
        ---1/3---3---3-------3-----3--------------

        Fill 2:
        ------------|----------------------------|
        ------------|----------------------------|
        ------------|----------------------------|
        ---------3/-|--5-----3--0--/5--5\--------|
        ------------|----------------------------|
        ------------|----------------------------|
        
        
        
Verse 1:
                                       Gm
If you've got bills that you can't pay
   Gm                           Gm
If you need cash like yesterday
   Bb
If you got junk just layin' around
   C
No credit check, just bring it on down


Chorus:
       Gm
At the pawn shop 
              Bb     C
Get your guns and guitars
   Gm
At one stop
         Bb C
Whatever it is
         Gm
It won't cost a lot
          Bb  C
Livin' on the cheap
         Bb                    A  Ab
Get your vinyl records and some DVD's

       Gm
At the pawn shop
                Bb       C
Get your jewels and your tools
   Gm
In one spot
   Bb    C
It don't matter
       Gm
If our goods are hot
                Bb  C
If they're yours or not
       Bb
Buy anything you want
          A         Ab
Sell everything you got
       Gm         Gm
At the pawn shop


Verse 2:
                                  Gm
Across the street from the Texaco
          Gm                             Gm
There's a neon sign saying "We buy gold"
      Bb
Where one man's pain is another man's pleasure
    C
And one man's trash is another man's treasure


Chorus:
       Gm
At the pawn shop 
              Bb     C
Get your guns and guitars
   Gm
At one stop
         Bb C
Whatever it is
         Gm
It won't cost a lot
          Bb  C
Livin' on the cheap
         Bb                    A  Ab
Get your vinyl records and some DVD's

       Gm
At the pawn shop
                Bb       C
Get your jewels and your tools
   Gm
In one spot
   Bb    C
It don't matter
       Gm
If our goods are hot
                Bb  C
If they're yours or not
       Bb
Buy anything you want
          A         Ab
Sell everything you got
       Gm
At the pawn shop


Solo: N/C


Bridge:
(N/C)
Get your girl a dress
Get a VHS
Get your old man some tools
And a second hand suit
Get some picture frames
Nintendo games
Buy a cheap gold necklace with a stranger's name


Chorus:
       Gm
At the pawn shop 
              Bb     C
Get your guns and guitars
   Gm
At one stop
         Bb C
Whatever it is
         Gm
It won't cost a lot
          Bb  C
Livin' on the cheap
         Bb                    A  Ab
Get your vinyl records and some DVD's

       Gm
At the pawn shop
                Bb       C
Get your jewels and your tools
   Gm
In one spot
   Bb    C
It don't matter
       Gm
If our goods are hot
                Bb  C
If they're yours or not
       Bb
Buy anything you want
          A         Ab
Sell everything you got
       Gm         Gm
At the pawn shop
       Gm         Gm
At the pawn shop
Добавлено: 28.04.2016
Другие материалы по этой песне:
  • Аккорды и текст

Страница создана 28.04.2016
http://primanota.ru/the-osborne-brothers/pawn-shop-chords.htm
Привет, Гость.
Предлагаем пройти революционный курс по гитаре.
Подарок от PrimaNota.Ru, забирай!