PrimaNota.ru - самый крупный в мире бесплатный архив песенных текстов, аккордов, табулатур и нот


The Orwells - Painted Faces And Long Hair - аккорды и текст, видео

Регистрация Запомнить меня
Войти через:  Facebook Google Twitter Vk Yandex Mail.ru

The Orwells - Painted Faces And Long Hair - аккорды и текст, видео

Печатать
Просмотров: 87
Painted Faces And Long Hair
The Orwells
The Orwells  - Painted Faces and Long Hair
          Remember When - 2012
https://www.youtube.com/watch?v=chnLyvR1Yj4
~~~~~~~~~~~~~~~~~~~~~~~~~~~~~~~~~~~~~~~~~~~

e|----------------------x-x-5-x-x-5-x-5~------------------------x-x-5-x-x-5-x-5~--|
B|----------------------x-x-5-x-x-5-x-7~------------------------x-x-5-x-x-5-x-7~--|
G|7b-7b-7b-7b-5h7p5-----x-x-6-x-x-6-x-7~--7b-7b-7b-7b-5h7p5-----x-x-6-x-x-6-x-7~--|
D|------------------7-5-x-x-7-x-x-7-x-7~--------------------7-5-x-x-7-x-x-7-x-7~--| x3 (Intro)
A|----------------------x-x-7-x-x-7-x-5~------------------------x-x-7-x-x-7-x-5~--|
E|----------------------x-x-5-x-x-5-x-x-------------------------x-x-5-x-x-5-x-x---|

         A             D             A                D
Vanilla chocolate swirl, she got her finger in a curl
           A                        D
Sh-sh-sh-short dress, your head it give me a twirl
          A                    D           
She'll go all night long, yeah summer girl

    A                     C                    A                    D
e|--------------------------------------------------------------------------|
B|--------------------------------------------------------------------------|
G|----------------------------------------------12121212121212-12-12-14b~---|
D|--12b--12-121212-12-12---12-12-12-12-12~--10------------------------------| x2 (Main Riff)
A|--------------------------------------------------------------------------|
E|--------------------------------------------------------------------------|

A                       D               A                 D
Summer time, she told me; "I feel fine, go ahead come on down."
          A                     D
"We got a bottle a wine, we got lots of time."
     A                   D
"It's summer time and we feel fine."

( Main Riff x2 )

             A     D                 A      D
Bring along them,    whatcha want to do?
    A                  D
Whatever you want, and you want
    A              D
And we don't gotta think 'bout school

( Main Riff x2 )

                        A        C              A     D
Go ahead and break the rules        It's summer fool
              A      C               A                        D 
The kids, the school,   don't matter   the summer's fine and break the rules

( A - D - )x4

(Main riff x2 over this last verse)

         A             C             A                D
Vanilla chocolate swirl, she got her finger in a curl
           A                        C
She got a short dress, your head it give me a twirl
          A                    D           
You'll go all night long, yeah summer girl

End on A
Добавлено: 03.08.2015
Другие материалы по этой песне:
  • Аккорды и текст

Страница создана 03.08.2015
http://primanota.ru/the-orwells/painted-faces-and-long-hair-chords.htm
Привет, Гость.
Предлагаем пройти революционный курс по гитаре.
Подарок от PrimaNota.Ru, забирай!