PrimaNota.ru - самый крупный в мире бесплатный архив песенных текстов, аккордов, табулатур и нот


The Operation Md - Obvious - таба, видео

Регистрация Запомнить меня
Войти через:  Facebook Google Twitter Vk Yandex Mail.ru

The Operation Md - Obvious - таба, видео

Печатать
Просмотров: 97
Obvious from The Operation M.D.

please check out the rhythm! listen to the song!
there're only the riffs!

Acoustic Guitar and Standart Tuning

Intro/Verse

e----------------------|
B----------------------|
G---7------------------|
D---7--2--5--7---------|
A---5--2--5--7---------|
E------0--3--5---------|

Chorus

e----------------------|                         e----------------------|
B----------------------|                         B----------------------|
G----------------------|--> playing this     ->  G--7--9--7-------------|
D---9--2--5--7---------|    when the             D--7--9--7--7----------|
A---9--2--5--7---------|    " yeah yeah.."       A--5--7--5--7----------|
E---7--0--3--5---------|    starts!              E-----------5----------|

after Chorus

 ->palm Mute
B----------------------|
G---7------------------|
D---7--2--5--7---------|
A---5--2--5--7---------|
E------0--3--5---------|
    .  .  .  .

enjoy it! and please rate!
take care, summerphili
Добавлено: 13.05.2012
Другие материалы по этой песне:
  • Аккорды и текст

Страница создана 13.05.2012
http://primanota.ru/the-operation-md/obvious-chords.htm
Привет, Гость.
Предлагаем пройти революционный курс по гитаре.
Подарок от PrimaNota.Ru, забирай!