PrimaNota.ru - самый крупный в мире бесплатный архив песенных текстов, аккордов, табулатур и нот


The Operation Md - Buried At Sea - бас-таба, видео

Регистрация Запомнить меня
Войти через:  Facebook Google Twitter Vk Yandex Mail.ru

The Operation Md - Buried At Sea - бас-таба, видео

Печатать
Просмотров: 99
Уроки эстрадного вокала в Санкт-Петербурге
Great Song by Operation MD
If thereÂ's something wrong, tell me and i will change it.


Intro:

G |--------------------------------------|
D |--------------------------------------|
A |--44444444444444444444444444444444444-|
E |--------------------------------------|

Verse:

G |------------------------------------------|
D |------------------------------------------|
A |--44444444444444444-1111111111------------| x3
E |-------------------------------2-22-4-44--|

Pre-Chorus:

G |----------------------------------------|
D |----------------------------------------|
A |----------------------------------------|
E |-222222222222222222222-444444444444444--|

Chorus:

G |-------------------------------------------|
D |-------------------------------------------|
A |-444444444444444-66-88---------------------| x2
E |-----------------------6666666666666-4/6/4-|

Verse:

G |------------------------------------------|
D |------------------------------------------|
A |--44444444444444444-1111111111------------| x3
E |-------------------------------2-22-4-44--|

Pre-Chorus:

G |--------------------------------------------|
D |--------------------------------------------|
A |--------------------------------------------|
E |-222222222222222222222-4444444444444444444--|

G |-----------------------------------------------|
D |-----------------------------------------------|
A |-----------------------------------------------|
E |-222222222222222222222-444444444444-4-4/12~/0--|

Chorus:

G |-------------------------------------------|
D |-------------------------------------------|
A |-444444444444444-66-88---------------------| x2
E |-----------------------6666666666666-4/6/4-|

G |------------------------|    G |---------------------------------------------|
D |------------------------|    D |---------------------------------------------|
A |-444444444444444-66-88--| x2 A |-444444444-66666666-8888888-1313131313131313-|
E |------------------------|    E |---------------------------------------------|

Solo:

G |----------------------------------------|    G |---------------------------------------------------|
D |----------------------------------------|    D |---------------------------------------------------|
A |---------------------4-44-666-----------| x3 A |-66666664/66666664/66666666666-13131313-13-12-10-9-|
E |-2-2222222-4-4444444----------6-6666666-|    E |---------------------------------------------------|

Chorus:

G |-------------------------------------------|
D |-------------------------------------------|
A |-444444444444444-66-88---------------------| till the end
E |-----------------------6666666666666-4/6/4-|
Добавлено: 01.06.2014
Другие материалы по этой песне:
  • Аккорды и текст

Страница создана 01.06.2014
http://primanota.ru/the-operation-md/buried-at-sea-chords.htm
Привет, Гость.
Предлагаем пройти революционный курс по гитаре.
Подарок от PrimaNota.Ru, забирай!