PrimaNota.ru - самый крупный в мире бесплатный архив песенных текстов, аккордов, табулатур и нот


The Open Mind - Magic Potion - аккорды и текст, таба, видео

Регистрация Запомнить меня
Войти через:  Facebook Google Twitter Vk Yandex Mail.ru

The Open Mind - Magic Potion - аккорды и текст, таба, видео

Печатать
Просмотров: 104
Magic Potion
The Open Mind
The Open Mind - Magic Potion
song: https://www.youtube.com/watch?v=j-Hdmm304Uw#

INTRO (MAIN RIFF)              
e|------------------------------------|
B|------------------------------------| 
G|-7/9-9-9---9-9-9-12-12-12-11--9-9-9-| \
D|-7/9-9-9---9-9-9-12-12-12-11--9-9-9-|  3x
A|-5/7-7-7---7-7-7-10-10-10-9---7-7-7-| /
E|---0-0-0---0-0-0--------------------| you can strum the open E-string throughout the riff

e|----------------------------------|
B|----------------------------------| 
G|-7/9-9-9---9-9-9-12-12-12-9-------|
D|-7/9-9-9---9-9-9-12-12-12-9-------|
A|-5/7-7-7---7-7-7-10-10-10-7-------|
E|---0-0-0---0-0-0------------------| 

SOLO RIFF (dabble around a bit with these notes)
e|-------------------------------|
B|---------------8/10-8-7--------|
G|-7/9-9-9--9-9-9----------9-9-7-|
D|-------------------------------|
A|-------------------------------|
E|-------------------------------|

VERSE 1
E
Take a drink from a magic potion
D                         E
Tell me do you still feel fine?
E
Once sip and you will see
D                      E
Things you never saw before

CHORUS
G           A
 How do you feel?
       E
I feel fine!
G           A
 How do you feel?
       E
I feel fine!
A                    E
 Upon my soul I feel fine!

MAIN RIFF

VERSE 2
E
All of a sudden there's a different world
  D                      E
Appearing in front of my eyes
E
 And you don't wanna try this potion
D                E
Leave it all for me!

CHORUS
G           A
 How do you feel?
       E
I feel fine!
G           A
 How do you feel?
       E
I feel fine!
A                    E
 Upon my soul I feel fine!

GUITAR SOLO
e|-----------------------------------------------------------|
B|-----------------------------------------------------------|
G|-----------------------------------------------------------|
D|-----------------------------------------------------------|
A|----2--1---2/4-2-1-2---1--------2---1---2------------------|
E|-0-----------------------3-2-0----0---0---3-0--/12\-0-/12\-|

e|-----------------------------------------------------------|
B|-----------------------------------------------------------|
G|-----------------------------------------------------------|
D|-----------------------------------------------------------|
A|----2--1---2/4-2-1-2---1----------2-1---1------------------|
E|-0-----------------------3-2-0--3-----3---3-0--------------|

RE-INTRO (repeat first bar 5x instead of 3)

VERSE 3
E
Take a drink from a magic potion
D                         E
Tell me do you still feel fine?
E
Once sip and you will see
D                      E
Things you never saw before

CHORUS
G           A
 How do you feel?
       E
I feel fine!
G           A
 How do you feel?
       E
I feel fine!
A                    E
 Upon my soul I feel fine!

MAIN RIFF

OUTRO
e|-------------|
B|-------------|
G|-12--11--9---|\
D|-12--11--9---| 3x
A|-10--9---7---|/
E|-------------|

End on E
Добавлено: 12.07.2015
Другие материалы по этой песне:
  • Аккорды и текст

Страница создана 28.06.2013
http://primanota.ru/the-open-mind/magic-potion-chords.htm
Привет, Гость.
Предлагаем пройти революционный курс по гитаре.
Подарок от PrimaNota.Ru, забирай!