PrimaNota.ru - самый крупный в мире бесплатный архив песенных текстов, аккордов, табулатур и нот


The Old Firm Casuals - Public Enemy - таба, видео

Регистрация Запомнить меня
Войти через:  Facebook Google Twitter Vk Yandex Mail.ru

The Old Firm Casuals - Public Enemy - таба, видео

Печатать
Просмотров: 116
-------------------------------------------------------------------------------
                            The Old Firm Casuals - Public Enemy
-------------------------------------------------------------------------------
Tabbed by: George Alan Szweden 

Tuning: Standard

You will have to fill in the rythm to get picking right.
intro
e|------------------------------------------------------------------------|
B|------------------------------------------------------------------------|
G|------------------------------------------------------------------------|
D|-2--------------2---------------2-----------2---------------------------|
A|-2----slide-----2---slide-------2-----------2---------------------------|
E|-0--------------0---------------0-----------0---------------------------|
                                                    ALRIGHT!
(I play the song without the 3 note power-cord.)*
intro continuation
e|---------------------------------------------------------------------------|
B|---------------------------------------------------------------------------|
G|---------------------------------------------------------------------------|
D|---------7-----------12-11-9--------------7--------------------------------|
A|---9-----5-----7-----10-9--7--------7-----5----7----x----------------------|
E|---7-----------5--------------------9----------5----x----------------------|

verse                                
e|-------------------------------|   e|-------------------------|
B|-------------------------------|   B|-------------------------|
G|-------------------------------|   G|-------------------------|
D|----------7----------9---------|x3 D|---------7---------------|last
A|----9-----5-----7----7---------|   A|---9-----5-----7-----7---|
E|----7-----------5--------------|   E|---7-----------5-----5---|

Chorus
e|-------------------------------------------|
B|-------------------------------------------|
G|-------------------------------------------|
D|---7-----9----------7-------9--------------|x2
A|---5--7--7--9-------5---7---7---2----------|
E|------5-----7-----------5-------0----------|

 sorry no solo

THOSE ARE ALL PARTS OF THE SONG

*
===========================================================
This is what i mean... EXAMPLE
   3 note power-cord            2 note power-cord
e|------------------------------------------------------|
B|------------------------------------------------------|
G|------------------------------------------------------|
D|--------9---------------------------------------------|
A|--------9-----------------------------9---------------|
E|--------7-----------------------------7---------------|
 
Добавлено: 11.06.2015
Вам также может быть интересно:
Другие материалы по этой песне:
  • Аккорды и текст

Страница создана 11.06.2015
http://primanota.ru/the-old-firm-casuals/public-enemy-chords.htm
Привет, Гость.
Предлагаем пройти революционный курс по гитаре.
Подарок от PrimaNota.Ru, забирай!