PrimaNota.ru - самый крупный в мире бесплатный архив песенных текстов, аккордов, табулатур и нот


The Ohio State University Marching Band - Buckeye Battle Cry - таба, видео

Регистрация Запомнить меня
Войти через:  Facebook Google Twitter Vk Yandex Mail.ru

The Ohio State University Marching Band - Buckeye Battle Cry - таба, видео

Печатать
Просмотров: 82
Уроки эстрадного вокала в Санкт-Петербурге
\\\Buckeye Battle Cry
///Written by Frank Crumit in 1918
\\\As performed by The Best Damn Band in the Land
///Tabbed by Jordan Bertke (bertke.67@buckeyemail.osu.edu)

e|-----------------------------------------------------------------------|
B|-----------------------------------------------------------------------|
G|------4--3--4—-0--2--1--2-----0--2--4--0-------------------------------|
D|---0-----------------------4--------------0----------------------------|
A|-----------------------------------------------------------------------|
E|-----------------------------------------------------------------------|
  In old Columbus(or Ohio), there's a team that's known throughout the land,

e|-----------------------------------------------------------------------|
B|-----------------------------------------------------------------------|
G|------4--3--4--0--2--1--2--4--6--4--0-----2----------------------------|
D|---0-----------------------------------2-------------------------------|
A|-----------------------------------------------------------------------|
E|-----------------------------------------------------------------------|
  Eleven warriors, brave and bold, whose fame will ever stand,

e|-----------------------------------------------------------------------|
B|-----------------------------------------------------------------------|
G|---4--5--4--5--7--5--4--------0--2--4--6-------------------------------|
D|------------------------2--4-------------------------------------------|
A|-----------------------------------------------------------------------|
E|-----------------------------------------------------------------------|
  And when the ball goes over, our cheers will reach the sky,

e|-----------------------------------------------------------------------|
B|---1--2--1--2----------------------------------------------------------|
G|---------------2--4-----2-----0--2-----4--3--2-------------------------|
D|---------------------4-----4--------2----------------------------------|
A|-----------------------------------------------------------------------|
E|-----------------------------------------------------------------------|
  Ohio Field will hear again The Buckeye Battle Cry!

e|---------------------|-------------------------------------------------|
B|---------------------|-------------------------------------------------|
G|---4--3--4--0--------|--0--0--2--0--2--5-------------------------------|
D|---------------2--0--|-------------------------------------------------|
A|---------------------|-------------------------------------------------|
E|---------------------|-------------------------------------------------|
  Drive! Drive, on down the field, men of scarlet and grey,

e|---------------------|-------------------------------------------------|
B|---------------------|--------------------------3--3--3----------------|
G|---5--4--5--2--------|--------------2--1--2--4-------------------------|
D|---------------4--0--|--4--2--1--0-------------------------------------|
A|---------------------|-------------------------------------------------|
E|---------------------|-------------------------------------------------|
  Don't let them through that line, we've got to win this game today! (O-HI-O)

e|---------------------|-------------------------------------------------|
B|---------------------|-----------------1-------------------------------|
G|---4--3--4--0--------|-----0--4--2--0----------------------------------|
D|---------------2--0--|--0----------------------------------------------|
A|---------------------|-------------------------------------------------|
E|---------------------|-------------------------------------------------|
  Smash thru to victory, we'll cheer you as you go,

e|---------------------|--------------------|----------------------------|
B|---------------------|-----------------3--|--1--0----------------------|
G|---------0-----0--3--|--2--0--4--3--4-----|--------2--0----------------|
D|---2--4-----4--------|--------------------|----------------------------|
A|---------------------|--------------------|----------------------------|
E|---------------------|--------------------|----------------------------|
  Our honor defend, so we'll fight to the end, for O-HI-O!

GO BUCKS!!!
Добавлено: 21.07.2012
Другие материалы по этой песне:
  • Аккорды и текст

Страница создана 21.07.2012
http://primanota.ru/the-ohio-state-university-marching-band/buckeye-battle-cry-chords.htm
Привет, Гость.
Предлагаем пройти революционный курс по гитаре.
Подарок от PrimaNota.Ru, забирай!