PrimaNota.ru - самый крупный в мире бесплатный архив песенных текстов, аккордов, табулатур и нот


The Number 12 Looks Like You - Weekly Wars - таба, видео

Регистрация Запомнить меня
Войти через:  Facebook Google Twitter Vk Yandex Mail.ru

The Number 12 Looks Like You - Weekly Wars - таба, видео

Печатать
Просмотров: 109
Уроки эстрадного вокала в Санкт-Петербурге
----------------------
The Weekly Wars - The Number Twelve Looks Like You
----------------------

I figured out the intro to this song. It's all tremolo picked and I think this is pretty 
100% right. I'm working on the rest now :D enjoy it.


|--------------------------------|
|--------------------------------|
|--------------------------------|
|--------------------------------|
|---99--1010--99--1010--99--1010-|
|-77--77----77--77----77--77-----|


|--------------------------------------------------|
|--------------------------------------------------|
|-----1212----1414----1212----1414----1212----1414-|
|-1010----1010----1010----1010----1010----1010-----|
|--------------------------------------------------|
|--------------------------------------------------|



|---------------------------------------------|
|---------------------------------------------|
|-12-7-9--12-7-9---12-7-9---12-7-9---12-7-9---|
|--------9-------9--------9--------9--------9-|
|---------------------------------------------|
|---------------------------------------------|






|--------------------------------|
|--------------------------------|
|--------------------------------|
|--------------------------------|
|---99--1010--99--1010--99--1010-|
|-77--77----77--77----77--77-----|


|--------------------------------------------------|
|--------------------------------------------------|
|-----1212----1414----1212----1414----1212----1414-|
|-1010----1010----1010----1010----1010----1010-----|
|--------------------------------------------------|
|--------------------------------------------------|



|---------------------------------------------|
|---------------------------------------------|
|-12-7-9--12-7-9---12-7-9---12-7-9---12-7-9---|
|--------9-------9--------9--------9--------9-|
|---------------------------------------------|
|---------------------------------------------|


|--------------------------------|
|--------------------------------|
|--------------------------------|
|--------------------------------|
|---99--1010--99--1010--99--1010-|
|-77--77----77--77----77--77-----|


|--------------------------------------------------|
|--------------------------------------------------|
|-----1212----1414----1212----1414----1212----1414-|
|-1010----1010----1010----1010----1010----1010-----|
|--------------------------------------------------|
|--------------------------------------------------|



|---------------------------------------------|
|---------------------------------------------|
|-12-7-9--12-7-9---12-7-9---12-7-9---12-7-9---|
|--------9-------9--------9--------9--------9-|
|---------------------------------------------|
|---------------------------------------------|




|--------------------------------|
|--------------------------------|
|--------------------------------|
|--------------------------------|
|---99--1010--99--1010--99--1010-|
|-77--77----77--77----77--77-----|


|--------------------------------------------------|
|--------------------------------------------------|
|-----1212----1414----1212----1414----1212----1414-|
|-1010----1010----1010----1010----1010----1010-----|
|--------------------------------------------------|
|--------------------------------------------------|



|---------------------------------------------|
|---------------------------------------------|
|-12-7-9--12-7-9---12-7-9---12-7-9---12-7-9---|
|--------9-------9--------9--------9--------9-|
|---------------------------------------------|
|---------------------------------------------|

_______________________________________
End tremolo picking.


|-----0---05----1p0---3p0-|
|-------------------------|
|----5-------------000----|
|---7----7---333----------|
|--0----0-----------------|
|-5----5------------------|


Добавлено: 20.07.2012
Другие материалы по этой песне:

Страница создана 20.07.2012
http://primanota.ru/the-number-12-looks-like-you/weekly-wars-chords.htm
Привет, Гость.
Предлагаем пройти революционный курс по гитаре.
Подарок от PrimaNota.Ru, забирай!