PrimaNota.ru - самый крупный в мире бесплатный архив песенных текстов, аккордов, табулатур и нот


The Number 12 Looks Like You - The Proud Parents Convention Held At The Er - таба, видео

Регистрация Запомнить меня
Войти через:  Facebook Google Twitter Vk Yandex Mail.ru

The Number 12 Looks Like You - The Proud Parents Convention Held At The Er - таба, видео

Печатать
Просмотров: 87
Artist/Band - The Number 12 Looks Like You
Album - Nuclear.Sad.Nuclear.
Song – The Proud Parent's Convention Held At The ER

Tuning: Drop D - D A D G B E
       

Key:
PM = Palm Mute
x  = Mute
/  = Slide
~  = Vibrato
b  = Bend string
h  = Hammer-on
p  = Pull-off
t  = Tremolo

Have fun!
(strumming not defined)

Guitar 1 + 2 (0:00)   (0:03)               (0:05)   
E]----------------|   -----------------|   -----------------------|
B]----------------|   -----------------|   -----------------------|
G]-7--4-10-10-9-7-|   --7--4---5-5-7-5-|   ---7--4--55-7-4--------|
D]-x--x—x--x--x-x-|x2 --x--x---x-x-x-x-|x1 -----------------------|
A]-5--2—8--8--7-5-|   --5--2---3-3-5-3-|   -----------------------|
E]----------------|   -----------------|   -----------------------|

Guitar 1 + 2 (0:07)   (0:16)
E]----------------|   --------------------------|
B]----------------|   --------------------------|
G]-7--4-10-10-9-7-|   --------------------------|
D]-x--x-x--x--x-x-|x5 --5--8--5--8-5-8-5--8-5-8-|x3
A]-5--2-8--8--7-5-|   --5--8--5--8-5-8-5--8-5-8-|
E]----------------|   --5--8--5--8-5-8-5--8-5-8-|

Guitars 1 + 2 (0:28)
E]------------------------------------------------|
B]--------------------------------------1-0-------|
G]------------------------------------------3-----|
D]-------------------2----------------------------|x2
A]-2-2-2-2-3-2-2-2--2---2-2-2-2-3-2-2-2-----------|
E]-2-2-2-2-3-2-2-2-2----2-2-2-2-3-2-2-2-----------|
PM . . . . . . . . .   . . . . . . . .

Guitar 1 + 2 (0:36)
E]---------------------------------------|
B]---------------------------------------|
G]---------------------------------------|
D]---------------2-----------------------|
A]-2-2-2-2-3-2--2---4-7-2-5-4--4-7-2-5-4-|
E]-2-2-2-2-3-2-2----4-7-2-5-4--4-7-2-5-4-|
PM . . . . . . .   . . . . .  . . . . . 




Guitar 1 + 2 (0:41)
E]------------------------------------|
B]------------------------------------|
G]------------------------------------|
D]—-----------------------2-5-------2-|x2
A]--2--222-222-222-22-------------5---|
E]--2--222-222-222-22-2-5-----2-5-----|
PM  . ... ... ... .. . .     . .

Solo(Guitar 1) (0:46)
E]--------------------------------------------------------------------------|
B]--------------------------------------------------------------------------|
G]--------------------------------------------------------------------------|
D]--------------------------------------------------------------------------|
A]—-------------------------------------------------------------------------|
E]--------------------------------------------------------------------------|

Rhythm For Solo (Guitar 2) (0:46)
E]-----------------------------------|
B]-----------------------------------|
G]-----------------------------------|
D]-----------------------2-5-------2-|x5
A]-2--222-222-222-22-------------5---|
E]-2--222-222-222-22-2-5-----2-5-----|
PM . ... ... ... .. . .     . .

Guitars 1 : (0:59)
E]---------------------------------------------|
B]—--------------------------------------------|
G]—--------------------------------------------|
D]---------------------------------------------|
A]—19b21~—21b23~-------------------------------|
E]---------------------------------------------|

Guitar 2 : (0:59)
E]-------------------------------------------|
B]-------------------------------------------|
G]-------------------------------------------|
D]-------------------------------------------|
A]-7-6-7-----9-7-6---------------------------|
E]-----------------10-9-10~-5-4-5-10-9-------|

Guitar 1: (1:04)
E]-----------------------------------------------|
B]-----------------------------------------------|
G]-----------------------------------------------|
D]-----------------------------------------------|
A]-7-6-7-----9-7-6-------------------------------|
E]-----------------10-9-10~-5-4-5-10-9-----------|
Guitar 2: (1:04)
E]------------------------------------------|
B]------------------------------------------|
G]------------------------------------------|
D]------------------------------------------|
A]-7------9------7------9-------4-5-10-9----|
E]---2222---2222---2222---2222--4-5-10-9----|
PM  ....   ....   ....   ....

Guitar 1: (1:10)
E]------------------------------------------|
B]------------------------------------------|
G]------------------------------------------|
D]-5------8------5------8-------------------|x2
A]-------------------------------4-5-10-9---|
E]---2222---2222---2222---22222--4-5-10-9---|
PM  ....   ....   ....   ....


Guitar 2: (1:10)
E]------------------------------------------|
B]------------------------------------------|
G]------------------------------------------|
D]------------------------------------------|x2
A]-7------9------7------9-------4-5-10-9----|
E]---2222---2222---2222---2222--4-5-10-9----|
PM  ....   ....   ....   ....


Guitar 1: (1:21)
E]-------------------------------------------------------|
B]-------------------------------------------------------|
G]-------------------------------------------------------|
D]-5------8------5------8--------------5t----------------|
A]-----------------------------------7t--------5t-7t-----|
E]---2222---2222---2222---2222—-4t-5t-----4t-5t----------|
PM  ....   ....   ....   ....  


Guitar 2:   (1:21)
E]-------------------------------------------------------|
B]-------------------------------------------------------|
G]-------------------------------------------------------|
D]-------------------------------------5t----------------|
A]-7------9------7------9------------7t--------5t-7t-----|
E]---2222---2222---2222---2222—-4t-5t-----4t-5t----------|
PM  ....   ....   ....   ....


Guitar 1 + 2: (1:27)
E]---------------------------------------------------------|
B]---------------------------------------------------------|
G]---------------------------------------------------------|
D]—------4-----------4-----------------4-------------------|
A]-7-----------7------------5-8--7-----------7------5-8----|
E]---5-2---5-2---5-2---5-2--5-8----5-2---5-2---5-2--5-8----|


E]---------------------------------------------------------------------|
B]---------------------------------------------------------------------|
G]---------------------------------------------------------------------|
D]-------4-----------4-----------------4-------------------------------|
A]-7-----------7------------5-8--7------------5--8-5--8-5-8-5--8-5-8---|
E]---5-2---5-2---5-2---5-2--5-8----5-2---5-2--5--8-5--8-5-8-5--8-5-8---|

Guitar 1: (1:42)
E]------------------|
B]------------------|
G]------------------|
D]------------------|x4
A]-2t---------2t----|
E]----5t-4t-5t------|

Guitar 2: (1:42)
E]------------------|
B]------------------|
G]------------------|
D]-0t---------------|x4
A]----2t-1t-2t------|
E]-------------5t---|

Guitar 1 + 2: (1:59)
E]------------------------------------------------------|
B]------------------------------------------------------|
G]-4-4-4-4-------------3-3-3-3-3-3-3-3-3-3-3-3----------|
D]-4-4-4-4-4-5-5-5-5-5-3-3-3-3-3-3-3-3-3-3-3-3----------|x4
A]-2-2-2-2-4-5-5-5-5-5-1-1-1-1-1-1-1-1-1-1-1-1----------|
E]---------4-5-5-5-5-5----------------------------------|
PM   .  .     .   .  
 
Guitar 1 + 2: (2:18)
E]------------------------|
B]------------------------|
G]-7-4-10-10-9-7----------|
D]-x-x-x--x--x-x----------|
A]-5-2-8--8--7-5----------|
E]------------------------|


The final part is a bit confusing. i'll try to put that up soon. for now, enjoy!
Добавлено: 02.03.2012
Другие материалы по этой песне:
  • Аккорды и текст

Страница создана 02.03.2012
http://primanota.ru/the-number-12-looks-like-you/the-proud-parents-convention-held-at-the-er-chords.htm
Привет, Гость.
Предлагаем пройти революционный курс по гитаре.
Подарок от PrimaNota.Ru, забирай!