PrimaNota.ru - самый крупный в мире бесплатный архив песенных текстов, аккордов, табулатур и нот


The Number 12 Looks Like You - Jesus And Tori - таба, видео

Регистрация Запомнить меня
Войти через:  Facebook Google Twitter Vk Yandex Mail.ru

The Number 12 Looks Like You - Jesus And Tori - таба, видео

Печатать
Просмотров: 99
Уроки эстрадного вокала в Санкт-Петербурге
Band: The Number 12 Looks Like You
Album: Put On Your Rosy Red Glasses
Track: Jesus And Tori
Tabbed By: Alex Glazounov (with correction by xbigrunx.... thanks!)

Tuning: Standard 

pm: palm mute. the periods (.) indicate muted notes.
/: slide
(): optional
~: let ring
h: hammer-on
p: pull-off
t: tremolo
v: vibrato
*: pinch harmonic (squeal)
T: tap


Guitar 1 (0:00)
   T      T        T 
E----------------5--------| x14
B---------12p5h8---12p5h8-|
G--12p5h8-----------------|
D-------------------------|
A-------------------------|
E-------------------------|
pm:

^ Thanks to xbigrunx for correcting this part... It's not impossible!
   
Guitar 2 (0:00)
E--12~11~12p11-12-12~12~11~12p11-12-12~|
B--------------------------------------|
G--------------------------------------|
D--------------------------------------|
A--------------------------------------|
E--------------------------------------|
pm:

Guitar 2 (0:08)
E--12p11-12p11-12p11-12p11-12p11-12p11-12~|
B-----------------------------------------|
G-----------------------------------------|
D-----------------------------------------|
A-----------------------------------------|
E-----------------------------------------|
pm:

Guitar 2 (0:11)
E--11h12-11h12-11h12-11h12-11h12-11h12-|
B--------------------------------------|
G--------------------------------------|
D--------------------------------------|
A--------------------------------------|
E--------------------------------------|
pm:

Guitar 1 (0:16)
E----------------------------------------------|
B----------------------------------------------|
G--3t-4t-3h4-3/4/3-----------------------------|
D------------------3-3-3-5-3-1-0-3-1-0---2-1---|
A------------------3-3-3---------------3-----2-|
E------------------3-3-3-----------------------|
pm:.  .            . . . . . . . . . . . . . .





Guitar 2 (0:16)
E---------------------------------------------|
B--------4-4h5p4------------------------------|
G--2t-3t---------------3-2-0-2-0------2-0-----|
D----------------3-3-3-----------4-3------4-3-|
A----------------3-3-3------------------------|
E----------------3-3-3------------------------|
pm:.  .          . . . . . . . . . .  . . . .

Guitar 1 (0:19)
E-----------------------------|
B-----------------------------|
G--7-5-4-0-5-4-3-2-3-2--------|
D----------------------4------|
A------------------------7-7~-|
E------------------------7-7~-|
pm:. . . . . . . . . . . .

Guitar 2 (0:19)
E-------------------|
B--2-0---3-0--------|
G------4-----4------|
D-------------------|
A--------------2-2~-|
E--------------2-2~-|
pm:. . . . . . .

Guitar 1 (0:27)
E-----------------------------------------------------------------|
B-----------------------------------------------------------------|
G-----------------------------------------------------------------|
D-----5---6---5---3---5---6---5--------5---5---5------3---5---3---| x4
A--3t---3---3---3---3---3---3---3---6t---6---6---6-5t---5---5---5-|
E-----------------------------------------------------------------|
pm:.    .   .   .   .   .   .   .   .    .   .   . .    .   .   .

Guitar 2 (0:27)
E----------------------------------------------------------|
B----------------------------------------------------------|
G----------------------------------------------------------|
D---------------------------------0h3-0h3-0h3-0-------0t---| x2
A--3t-6---5---3---5---6---5---3-----------------0t-0t----3-|
E-------3---3---3---3---3---3---3--------------------------|
pm:.    .   .   .   .   .   .   .               .  .  .  .

Guitar 2 (0:35)
E------------|
B------------|
G--5~--8~-8~-|
D--5~--8~-8~-| x2
A--3~--6~-8~-|
E------------|
pm:

Guitar 1 (0:43)
E--------------------------------------------------|
B--------------------------------------------------|
G----------5/0---------7/0---------7/0-------------|
D----------5/0---------7/0---------7/0-------5t-4t-|
A----------3/0---------5/0---------5/0-2t-3t-------|
E--000-000-----000-000-----000-000-----------------|
pm:... ...     ... ...     ... ...     .  .  .  .

Guitar 2 (0:43)
E--------------------------------------------|
B--------------------------------------------|
G----------5---------7---------7-------------|
D----------5---------7---------7-------5t-4t-|
A----------3---------5---------5-3t-2t-------|
E--000-000---000-000---000-000---------------|
pm:... ...   ... ...   ... ...   .  .  .  .

Guitar 1 (0:48)
E--------------------------------------------------|
B--------------------------------------------------|
G----------5/0---------4/0---------7/0-------------|
D----------5/0---------4/0---------7/0-------5t-4t-|
A----------3/0---------2/0---------5/0-2t-3t-------|
E--000-000-----000-000-----000-000-----------------|
pm:... ...     ... ...     ... ...     .  .  .  .

Guitar 2 (0:48)
E--------------------------------------------|
B--------------------------------------------|
G----------5---------4---------7-------------|
D----------5---------4---------7-------5t-4t-|
A----------3---------2---------5-3t-2t-------|
E--000-000---000-000---000-000---------------|
pm:... ...   ... ...   ... ...   .  .  .  .

Guitar 1 (0:52)
E--------------------------------------------------|
B--------------------------------------------------|
G----------5/0---------4/0-------------------------|
D----------5/0---------4/0---------4/0-------5t-4t-|
A----------3/0---------2/0---------4/0-2t-3t-------|
E--000-000-----000-000-----000-000-2/0-------------|
pm:... ...     ... ...     ... ...     .  .  .  .

Guitar 2 (0:52)
E--------------------------------------------|
B--------------------------------------------|
G----------5---------4---------4-------------|
D----------5---------4---------4-------5t-4t-|
A----------3---------2---------2-3t-2t-------|
E--000-000---000-000---000-000---------------|
pm:... ...   ... ...   ... ...   .  .  .  .

Guitar 1 (0:57)
E-------------------------|
B-------------------------|
G-------------------------|
D-------------------------| x2
A--2-2-222---2--2-2-2-222-|
E--0-0-000---0--0-0-0-000-|
pm:. . ...   .  . . . ...

Guitar 2 (0:57)
E-------------------------|
B-------------------------|
G-------------------------|
D-------------------------| x6
A--2-2-222---2--2-2-2-222-|
E--0-0-000---0--0-0-0-000-|
pm:. . ...   .  . . . ...

Guitar 1 (1:02)
E--11p0------11p0------|
B-------12p0------11p0-|
G----------------------|
D----------------------|
A----------------------|
E----------------------|
pm:

Guitar 1 (1:04)
E--12p0------11p0------|
B-------12p0------11p0-|
G----------------------|
D----------------------| x7
A----------------------|
E----------------------|
pm:

Guitar 1 (1:13)
E----------------------|
B----------------------|
G----------------------|
D----------------------|
A--2t-4t-5t-4t-4-5-4-2-|
E--------------2-3-2-0-|
pm:.  .  .  .  . . . .

Guitar 2 (1:13)
E----------------------|
B----------------------|
G----------------------|
D----------------------|
A--------------4-5-4-2-|
E--------------2-3-2-0-|
pm:            . . . .

Guitar 1 (1:15)
E----------------------------|
B----------------------------|
G----------------------------|
D-----------5t-4t----4-------|
A--2t-4t-5t-------5t-2-5-4-2-|
E----------------------3-2-0-|
pm:.  .  .  .  .  .  . . . .

Guitar 2 (1:15)
E----------------------------|
B----------------------------|
G----------------------------|
D--------------------4-------|
A--------------------2-5-4-2-|
E----------------------3-2-0-|
pm:                  . . . .

Guitar 1 (1:17)
E--------------------------|
B--------------------------|
G-----------------5t-4t----|
D-----------5t-4t-------5t-|
A--2t-4t-5t----------------|
E--------------------------|
pm:.  .  .  .  .  .  .  .

Both Guitars (1:19)
E----------------------------------|
B----------------------------------|
G----------------------------------|
D----------------------------------| 
A--4-5-4-2-3-4-3-2-4-5-4-2-3-4-3-2-|
E--2-3-2-0-1-2-1-0-2-3-2-0-1-2-1-0-|
pm:. . . . . . . . . . . . . . . .

Both Guitars (1:22)
E---------------------------------|
B---------------------------------|
G---------------------------------|
D---------------------------------| x5 
A--4-5-4-2-3-4-3-2-4-5-4-2-3-4----|
E--2-3-2-0-1-2-1-0-2-3-2-0-1-2-2*-|
pm:. . . . . . . . . . . . . .







Guitar 1 (1:39)
E--------------------|
B--------------------|
G--------------------|
D--------------------| x4
A--2-2-2-2-2-2-5t-6t-|
E--0-0-0-0-0-0-------|
pm:. . . . . . .  .

Guitar 2 (1:39)
E--------------------|
B--------------------|
G--------------------|
D--------------7t-8t-| x4
A--2-2-2-2-2-2-------|
E--0-0-0-0-0-0-------|
pm:. . . . . .

Guitar 1 (1:51)
E------------------------------------------------------------------|
B------------------------------------------------------------------|
G------------------------------------------------------------------|
D------------------------------------------------------------------| x5
A--0-0-3-000-5-000-3-000-5-000-3h5-----3-----3---3-----3-----3h5p3-|
E----------------------------------1-1---111---1---000---000-------|
pm:. .   ...   ...   ...   ...     . .   ...   .   ...   ...

Guitar 2 (1:51)
E------------|
B------------|
G--2~--------|
D--2~--3~-2~-| x2
A--0~--3~-2~-|
E------1~-0~-|
pm:

Guitar 2 (2:00)
E-------------------------------------------------------------------|
B-------------------------------------------------------------------|
G-------------------------------------------------------------------|
D---------------------------------------------0---------------------| x3
A--0-0-7-000-8-000-10-000-8-000-7h8-----3---------3-----2-----3---2-|
E-----------------------------------1-1---111---1---0-0---000---0---|
pm:. .   ...   ...    ...   ...     . .   ...   .   . .   ...   .

Guitar 1 (2:15)
E-------------------------------------------|
B-------------------------------------------|
G--/5--4/5/4---------/5--4/5/7-/5-4/5/4-----|
D-------------5-5/7~---------------------5~-|
A--/3--2/3/2---------/3--2/3/5-/3-2/3/2-----|
E-------------3-3/5~---------------------3~-|
pm:

Guitar 2 (2:15)
E-------------------------------------------|
B-------------------------------------------|
G--/5--4/5/4---------/5--4/5/7~----/5/4-----|
D-------------5-5/7~---------------------5~-|
A--/3--2/3/2---------/3--2/3/5~----/3/2-----|
E-------------3-3/5~---------------------3~-|
pm:

Guitar 1 (2:30)
E-------------------------|
B--13~-12-13-12-----------|
G---------------12-12h14~-|
D-------------------------|
A-------------------------|
E-------------------------|
pm:

Guitar 2 (2:30)
E--------------------|
B--------------------|
G--/5--4/5/4---------|
D-------------5-5/7~-|
A--/3--2/3/2---------|
E-------------3-3/5~-|
pm:

Guitar 1 (2:36)
E-----------------------------------------------------------------------|
B--13~-12-13-15--13-12h13-12h13p12----12--------------------------------|
G----------------------------------14----12h14p12----12-11----------12v-|
D-------------------------------------------------14-------14-15p14-----|
A-----------------------------------------------------------------------|
E-----------------------------------------------------------------------|
pm:

Guitar 2 (2:36)
E-----------------------|
B-----------------------|
G--/5--4/5/7--7-5-------|
D-----------------5-5/7-|
A--/3--2/3/5--5-3-------|
E-----------------3-3/5-|
pm:

Guitar 1 (2:43)
E------------------------------------------------------------------------|
B--8h10h11-12--8-10-12--8-10-13-15--8-10-13-16--10-13-17-13--10-13-15-17-|
G------------------------------------------------------------------------|
D------------------------------------------------------------------------|
A------------------------------------------------------------------------|
E------------------------------------------------------------------------|
pm:

Guitar 1 (2:45)
E----------------------------12-------10-------10-8h10p8-7h8p7---8p7h8----|
B--10-13-15-17--10-13-15-17-----10-13-------10-----------------8-------9v-|
G----------------------------------------12-------------------------------|
D-------------------------------------------------------------------------|
A-------------------------------------------------------------------------|
E-------------------------------------------------------------------------|
pm:

Guitar 2 (2:43)
E------------------|
B------------------|
G--/5--/7----------|
D-----------5-5/7~-|
A--/3--/5----------|
E-----------3-3/5~-|
pm:

Guitar 1 (2:50)
E----------------------------------------------------------------------|
B-------8----8-10-7-8b---7---------------------------------------------|
G--9-11---11-----------9---9-7h9p7-9-7/0-------------------------------|
D------------------------------------------------------10----10-12/14v-|
A----------------------------------------------8-10/12----12-----------|
E-----------------------------------------8-10-------------------------|
pm:                                       . .  . .

Guitar 2 (2:50)
E------------------|
B------------------|
G--/5--/7----------|
D-----------5-5/7~-|
A--/3--/5----------|
E-----------3-3/5~-|
pm:

Guitar 1 (2:56)
E--------------------------------------------------|
B--13-13----13-13-------13----12----12-12----12----|
G--14----14-------14-14----12----12-------12----12-|
D--------------------------------------------------|
A--------------------------------------------------|
E--------------------------------------------------|
pm:

Guitar 1 (2:59)
E--------------------------------------------------|
B-----13----13-13----13-13----13-13-13-13----13----|
G--14----14-------14-------14-------------14----14-|
D--------------------------------------------------|
A--------------------------------------------------|
E--------------------------------------------------|
pm:

Guitar 2 (2:56)
E--------------------|
B--------------------|
G--/5--4/5/4---------|
D-------------5-5/7~-|
A--/3--2/3/2---------|
E-------------3-3/5~-|
pm:

Guitar 1 (3:03)
E--12-12----12-12----12----------------------------|
B--------10-------10----10----13----13----13-------|
G--------------------------14----14----14----14-14-|
D--------------------------------------------------|
A--------------------------------------------------|
E--------------------------------------------------|
pm:

Guitar 1 (3:06)
E------------------------------|
B-----12----12-12----12-12-12~-|
G--12----12-------12-----------|
D------------------------------|
A------------------------------|
E------------------------------|
pm:

Guitar 2 (3:03)
E--------------------|
B--------------------|
G--/5--4/5/4---------|
D-------------5-5/7~-|
A--/3--2/3/2---------|
E-------------3-3/5~-|
pm:

Guitar 1 (3:09)
E--15~-14-15-14-----------|
B---------------15-15h17~-|
G-------------------------|
D-------------------------|
A-------------------------|
E-------------------------|
pm:
Guitar 2 (3:09)
E-----------------------|
B-----------------------|
G--/5--4/5/7--7-5-------|
D-----------------5-5/7-|
A--/3--2/3/5--5-3-------|
E-----------------3-3/5-|
Добавлено: 10.03.2012
Другие материалы по этой песне:

Страница создана 10.03.2012
http://primanota.ru/the-number-12-looks-like-you/jesus-and-tori-chords.htm
Привет, Гость.
Предлагаем пройти революционный курс по гитаре.
Подарок от PrimaNota.Ru, забирай!