PrimaNota.ru - самый крупный в мире бесплатный архив песенных текстов, аккордов, табулатур и нот


The Number 12 Looks Like You - Blue Dress - таба, бас-таба, видео

Регистрация Запомнить меня
Войти через:  Facebook Google Twitter Vk Yandex Mail.ru

The Number 12 Looks Like You - Blue Dress - таба, бас-таба, видео

Печатать
Просмотров: 104
Уроки эстрадного вокала в Санкт-Петербурге
I exported the powertab for all the people who dont have powertab



Gtr I (D A D G B E) - 'Untitled'
Gtr II (D A D G B E) - 'Untitled'

 "Dragged to the burial.."
  C#b5
 8/8
  Gtr I
  E E E E E E E E   E E E E E E E E
|-----------------|-----------------|
|-----------------|-----------------|
|-6-6---6-6---6-6-|---6-6---6---6---|
|-5-5---5-5---5-5-|---5-5---5---5---|
|-4-4---4-4---4-4-|---4-4---4---4---|
|-----------------|-----------------|
|
| Gtr II
| E E E E E E E E   E E E E E E E E
|-----------------|-----------------|
|-----------------|-----------------|
|-6-6-6-6-6-6-6-6-|-6-6-6-6-6-6-6-6-|
|-x-x-x-x-x-x-x-x-|-x-x-x-x-x-x-x-x-|
|-4-4-4-4-4-4-4-4-|-4-4-4-4-4-4-4-4-|
|-----------------|-----------------|


   E  E  E  E  E  E  E  E    E  E  E  E  H
|-------------------------|-------------------------|
|-------------------------|-------------------------|
|--6--6-----6--6-----6--6-|-----6--6----------------|
|--5--5-----5--5-----5--5-|-----5--5----------------|
|--4--4-----4--4-----4--4-|-----4--4----------------|
|-------------------------|-------------------------|
|
|  E  E  E  E  E  E  E  E    E  E  E  E  E  E  E  E
|-------------------------|-------------------------|
|-------------------------|-------------------------|
|-12-12-12-12-12-12-12-12-|-12-12-12-12-12-12-12-12-|
|--x--x--x--x--x--x--x--x-|--x--x--x--x--x--x--x--x-|
|-10-10-10-10-10-10-10-10-|-10-10-10-10-10-10-10-10-|
|-------------------------|-------------------------|


  C#b5
  E E E E E E E E   E E E E E E E E
|-----------------|-----------------|
|-----------------|-----------------|
|-6-6---6-6---6-6-|---6-6---6---6---|
|-5-5---5-5---5-5-|---5-5---5---5---|
|-4-4---4-4---4-4-|---4-4---4---4---|
|-----------------|-----------------|
|
| E E E E E E E E   E E E E E E E E
|-----------------|-----------------|
|-----------------|-----------------|
|-5-5-5-5-5-5-5-5-|-5-5-5-5-5-5-5-5-|
|-x-x-x-x-x-x-x-x-|-x-x-x-x-x-x-x-x-|
|-3-3-3-3-3-3-3-3-|-3-3-3-3-3-3-3-3-|
|-----------------|-----------------|


   E  E  E  E  E  E  E  E    E  E  E  E  E  E  E  E
|-------------------------|-------------------------||
|-------------------------|-------------------------||
|--6--6-----6--6-----6--6-|-----6--6-----6-----6----||
|--5--5-----5--5-----5--5-|-----5--5-----5-----5----||
|--4--4-----4--4-----4--4-|-----4--4-----4-----4----||
|-------------------------|-------------------------||
|
|  E  E  E  E  E  E  E  E    E  E  E  E  E  E  E  E
|-------------------------|-------------------------||
|-------------------------|-------------------------||
|-11-11-11-11-11-11-11-11-|-11-11-11-11-11-11-11-11-||
|--x--x--x--x--x--x--x--x-|--x--x--x--x--x--x--x--x-||
|--9--9--9--9--9--9--9--9-|--9--9--9--9--9--9--9--9-||
|-------------------------|-------------------------||


 "Roses drip black.."
  Q=222
  Gb5                N.C.
                       PM  PM  PM  PM
   E  Q   Q   Q  E   E E E E E E E E
|------------------|-----------------|
|------------------|-----------------|
|--5--5---5---5----|-----------------|
|--4--4---4---4----|-----------------|
|--3--3---3---3----|-3---6---5---1-3-|
|------------------|---5---5---5-----|
|
|                      PM  PM  PM  PM
|  E  Q   Q   Q  E   E E E E E E E E
|------------------|-----------------|
|------------------|-----------------|
|-12-12--12--12----|-----------------|
|-11-11--11--11----|-----------------|
|-10-10--10--10----|-3---6---5---1-3-|
|------------------|---5---5---5-----|


  Gb5                  D5
                       PM--------------------|
   E  Q   Q   Q  E     S S E S S E S S E S S E  4x
|------------------||---------------------------||
|------------------||o-------------------------o||
|--5--5---5---5----||---------------------------||
|--4--4---4---4----||---------------------------||
|--3--3---3---3----||o-0-0-0-0-0-0-0-0-0-0-0-0-o||
|------------------||--0-0-0-0-0-0-0-0-0-0-0-0--||
|
|                      PM--------------------|
|  E  Q   Q   Q  E     S S E S S E S S E S S E  4x
|------------------||---------------------------||
|------------------||o-------------------------o||
|-12-12--12--12----||---------------------------||
|-11-11--11--11----||---------------------------||
|-10-10--10--10----||o-0-0-0-0-0-0-0-0-0-0-0-0-o||
|------------------||--0-0-0-0-0-0-0-0-0-0-0-0--||


  Q=204
  N.C.                  D5
  Gtr I
                        PM--------|
  E E E E E E E   +E    S S E S S E E Q.
|---------------------|--------------------|
|---------------------|--------------------|
|---------------------|--------------------|
|---------------------|--------------------|
|-8p0-7p0-5p0-3b4r(3)-|-0-0-0-0-0-0-0------|
|---------------------|-0-0-0-0-0-0-0------|
|
| Gtr II
|                       PM----------|
| E E E E E E E   +E    S S E S S E E Q.
|---------------------|--------------------|
|---------------------|--------------------|
|---------------------|--------------------|
|---------------------|--------------------|
|-8p0-7p0-5p0-3b4r(3)-|-0-0-0-0-0-0-0------|
|---------------------|-0-0-0-0-0-0-0------|


                                       N.C.
             PM--------|
  W          S S E S S E E Q.     H     H
|----------|--------------------|-------------|
|----------|--------------------|-------------|
|----------|--------------------|-------------|
|----------|--------------------|-------------|
|----------|-0-0-0-0-0-0-0------|-------------|
|----------|-0-0-0-0-0-0-0------|------15\----|
|
|            PM----------|
| W          S S E S S E E Q.     W
|----------|--------------------|-------------|
|----------|--------------------|-------------|
|----------|--------------------|-------------|
|----------|--------------------|-------------|
|----------|-0-0-0-0-0-0-0------|-------------|
|----------|-0-0-0-0-0-0-0------|-------------|


  D5
  Gtrs I, II
  PM----------|                   PM----------|
  S S E S S E E Q.     W          S S E S S E E Q.     W
|--------------------|----------|--------------------|------||
|--------------------|----------|--------------------|------||
|--------------------|----------|--------------------|------||
|--------------------|----------|--------------------|------||
|-0-0-0-0-0-0-0------|----------|-0-0-0-0-0-0-0------|------||
|-0-0-0-0-0-0-0------|----------|-0-0-0-0-0-0-0------|------||


   "Shows your ample wit."
    D5        N.C.
    PM----------------------------| ~~~~~~~~~~
    E E S S E E E E E   E E E E E E E     +E
||--------------------|-----------------------|
||o-------------------|-----------------------|
||--------------------|-----------------------|
||------------7-8-7---|-7-6---6-5---5b5.5r(5)-|
||o-0-0-0-0-0-------8-|-----7-----6-----------|
||--0-0-0-0-0---------|-----------------------|


  D5        N.C.
  PM----------------------------|  ~~~~~~~~~~~
  E E S S E E E E E   E E E E E E  E      +E
|-------------------|---------------------------||
|-------------------|--------------------------o||
|-------------------|-------------[8]b8.5r(8)---||
|-----------7-8-7---|-7-6---6-5-----------------||
|-0-0-0-0-0-------8-|-----7-----6--------------o||
|-0-0-0-0-0---------|---------------------------||


    Q=238
    N.C.
      PM  PM  PM  PM     PM  PM
                               |-3-|
    E E E E E E E E    E E E E E E E  Q
||------------------|--------------------|
||o-----------------|--------------------|
||------------------|--------------------|
||------------------|--------------------|
||o-1---8---7---3---|-10---8---7h8p7-----|
||----0---0---0---0-|----0---0-------10--|


    PM  PM  PM  PM     PM  PM
                             |-3-|
  E E E E E E E E    E E E E E E E  Q
|-----------------|----------------------||
|-----------------|---------------------o||
|-----------------|----------------------||
|-----------------|----------------------||
|-1---8---7---3---|-10---8---7h8p7------o||
|---0---0---0---0-|----0---0-------10----||


   "To get back at your.."
    Q=160
    GbF#FbG#GbF#GbF#b5Fb5 N.C.          GbF#FbG#b5GbF#GbF#FbF#b5
    PM----------------|                 PM-------
                        |-3-|   |-3-|
    E E E E E E E E   E S S S S S S S S E E E E
||------------------|---5-6-5---6-8-6-----------|
||o-----------------|---------6-------8---------|
||------------------|---------------------------|
||------------------|---------------------------|
||o-4-3-2-5-4-3-4-3-|-2-----------------4-3-2-5-|
||--5-4-3-6-5-4-5-4-|-3-----------------5-4-3-6-|


                  7/8
 --------------|     PM---------|
  E E E E E q  E   E S S S S q  q
|----------------|------------------||
|----------------|-----------------o||
|----------------|------------------||
|----------------|------------------||
|-4-3-4-3-2-3--3-|---3-3-3-3-3--3--o||
|-5-4-5-4-3-4--4-|---4-4-4-4-4--4---||


 Drum Fill
  Q=188
  N.C.
 6/8       8/8        6/8       7/8
  H.        W          H.        H..
|---------|----------|---------|--------||
|---------|----------|---------|--------||
|---------|----------|---------|--------||
|---------|----------|---------|--------||
|---------|----------|---------|--------||
|---------|----------|---------|--------||


 Tricky
  N.C.              D5     N.C.              D5
 6/8                      8/8
   S  S  S  S S S S E. E    S  S  S  S S S S E. E. E S
|------------------------|-----------------------------|
|------------------------|-----------------------------|
|-------------------7----|-------------------7--7--7---|
|-------------------7----|-------------------7--7--7---|
|-13-12-11-10-9-8-7-5----|-13-12-11-10-9-8-7-5--5--5---|
|------------------------|-----------------------------|


  N.C.              D5     N.C.              D5
 6/8                      8/8
   S  S  S  S S S S E. E    S  S  S  S S S S E. E. E S
|------------------------|------------------------------|
|------------------------|------------------------------|
|-------------------7----|-------------------7--7--7----|
|-------------------7----|-------------------7--7--7----|
|-13-12-11-10-9-8-7-5----|-13-12-11-10-9-8-7-5--5--5----|
|------------------------|------------------------------|


  Q=130                                           H=H  Q=244
  D5
                                                      1/2
  PM--------------------------------------------|
  E E E E E E E E   E E E E E E E E   E E E E E E Q    H
|-----------------|-----------------|----------------|------||
|-----------------|-----------------|----------------|------||
|-----------------|-----------------|----------------|------||
|-----------------|-----------------|----------------|------||
|-0-0-0-0-0-0-0-0-|-0-0-0-0-0-0-0-0-|-0-0-0-0-0-0----|------||
|-0-0-0-0-0-0-0-0-|-0-0-0-0-0-0-0-0-|-0-0-0-0-0-0----|------||


   "..at your bastards lust!"
    N.C.
   16/16
    TP TP TP TP   TP         TP TP TP TP   TP
    Q  Q  Q  Q    W          Q  Q  Q  Q    W
||--------------|----------|-------------|-------||
||o-------------|----------|-------------|------o||
||--------------|----------|-------------|-------||
||--------------|----------|-------------|-------||
||o----1--0--5--|-4--------|----1--0--5--|-4----o||
||--0-----------|----------|-0-----------|-------||


 Bridge
  D5
  Gtr I
      |-3--| |-3-|          |-3--| |-3-|
  E E E  E E E E E Q    E E E  E E E E E Q
|---------------------|---------------------|
|---------------------|---------------------|
|---------------------|---------------------|
|-----3--3-3-2-2-2-3--|-----3--3-3-2-2-2-3--|
|---------------------|---------------------|
|-0-0-----------------|-0-0-----------------|
|
| Gtr II
| PM-----------------------------------------
| Q   H.                Q   H.
|---------------------|---------------------|
|---------------------|---------------------|
|---------------------|---------------------|
|---------------------|---------------------|
|-0-------------------|-0-------------------|
|-0-------------------|-0-------------------|


  F5                    N.C.
      |-3--| |-3-|          |-3--| |-3-|
  E E E  E E E E E Q    E E E  E E E E E Q
|---------------------|----------------------||
|---------------------|----------------------||
|---------------------|----------------------||
|-----3--3-3-2-2-2-3--|-----3--3-3-2-2-2-3---||
|---------------------|----------------------||
|-3-3-----------------|-5-5------------------||
|
|---------------------------|
| Q   H.                Q   H.
|---------------------|----------------------||
|---------------------|----------------------||
|---------------------|----------------------||
|---------------------|----------------------||
|-3-------------------|----------------------||
|-3-------------------|-5--------------------||


   "..bring the day to rust!"
    N.C.
        |-3-| |-3-|          |-3-| |-3-|
    E E E E E E E E Q    E E E E E E E E Q
||---------------------|--------------------|
||o--------------------|--------------------|
||---------------------|--------------------|
||------3-3-3-2-2-2-3--|-----3-3-3-2-2-2-3--|
||o--------------------|--------------------|
||--0-0----------------|-0-0----------------|
|
|       |-3-| |-3-|          |-3-| |-3-|
|   E E E E E E E E Q    E E E E E E E E Q
||---------------------|--------------------|
||o--------------------|--------------------|
||------3-3-3-2-2-2-3--|-----3-3-3-2-2-2-3--|
||---------------------|--------------------|
||o--------------------|--------------------|
||--0-0----------------|-0-0----------------|


      |-3-| |-3-|          |-3-| |-3-|
  E E E E E E E E Q    E E E E E E E E Q
|--------------------|---------------------||
|--------------------|--------------------o||
|--------------------|---------------------||
|-----3-3-3-2-2-2-3--|-----3-3-3-2-2-2-3---||
|--------------------|--------------------o||
|-3-3----------------|-5-5-----------------||
|
|     |-3-| |-3-|          |-3-| |-3-|
| E E E E E E E E Q    E E E E E E E E Q
|--------------------|---------------------||
|--------------------|--------------------o||
|-----3-3-3-2-2-2-3--|-----3-3-3-2-2-2-3---||
|--------------------|---------------------||
|--------------------|--------------------o||
|-3-3----------------|-5-5-----------------||


  Q=203
  N.C.
  E E  E E E E E E   E E E E E E E E
|------------------|-----------------|
|------------------|-----------------|
|------------------|-----------------|
|-3-2----2-5-3-2-3-|-----------------|
|------3-----------|-1-5-3-5-0-5-3-5-|
|------------------|-----------------|
|
| E Q.     H         H       H
|------------------|-----------------|
|------------------|-----------------|
|------------------|-----------------|
|-3----------------|-----------------|
|------------------|-----------------|
|------------------|-----------------|


   "Razor proof veil and.."
    N.C.
    E E E E E E E E   E E E E E E E E   E E E E E E E E   E E E E E E E E
||------------------|-----------------|-----------------|-------------------||
||o-----------------|-----------------|-----------------|------------------o||
||------------------|-----------------|-----------------|-------------------||
||--3-2---2-5-3-2-3-|-----------------|-3-2---2-5-3-2-3-|-------------------||
||o-----3-----------|-1-5-3-5-0-5-3-5-|-----3-----------|-1-5-3-5-0-5-3-5--o||
||------------------|-----------------|-----------------|-------------------||
|
|   E E E E E E E E   E E E E E E E E   E E E E E E E E   E E E E E E E E
||------------------|-----------------|-----------------|-------------------||
||o-----------------|-----------------|-----------------|------------------o||
||--2-0---0-3-2-0-3-|-----------------|-2-0---0-3-2-0-3-|-------------------||
||------2-----------|-0-3-2-3---3-2-3-|-----2-----------|-0-3-2-3---3-2-3---||
||o-----------------|---------3-------|-----------------|---------3--------o||
||------------------|-----------------|-----------------|-------------------||


    D5
    Gtrs I, II
    PM--------------|                   PM--------------|
    S S S S S S S S E Q.     W          S S S S S S S S E Q.     W     3x
||-------------------------|----------|------------------------|-------||
||o------------------------|----------|------------------------|------o||
||-------------------------|----------|------------------------|-------||
||-------------------------|----------|------------------------|-------||
||o-0-0-0-0-0-0-0-0-0------|----------|-0-0-0-0-0-0-0-0-0------|------o||
||--0-0-0-0-0-0-0-0-0------|----------|-0-0-0-0-0-0-0-0-0------|-------||


  Q=270
  D5
  Gtr I
  W          +W            W           +W
|----------|------------|------------|--------|
|----------|------------|------------|--------|
|----------|------------|--7---------|-(7)----|
|-0--------|-(0)--------|--7---------|-(7)----|
|-0--------|-(0)--------|------------|--------|
|-0--------|-(0)--------|------------|--------|
|
| Gtr II
| W          +W           +W           +W
|----------|------------|------------|--------|
|----------|------------|------------|--------|
|----------|------------|------------|--------|
|-0--------|-(0)--------|-(0)--------|-(0)----|
|-0--------|-(0)--------|-(0)--------|-(0)----|
|-0--------|-(0)--------|-(0)--------|-(0)----|


  D5
  W          +W            Q    Q   H       Q    Q   H
|----------|------------|----------------|----------------|
|----------|------------|-11---11--10----|-11---11--10----|
|----------|------------|--9----9---9----|--9----9---9----|
|-0--------|-(0)--------|----------------|----------------|
|-0--------|-(0)--------|----------------|----------------|
|-0--------|-(0)--------|----------------|----------------|
|
| W          +W           +W               +W
|----------|------------|----------------|----------------|
|----------|------------|----------------|----------------|
|----------|------------|----------------|----------------|
|-0--------|-(0)--------|-(0)------------|-(0)------------|
|-0--------|-(0)--------|-(0)------------|-(0)------------|
|-0--------|-(0)--------|-(0)------------|-(0)------------|


  D5                 N.C.
              \3______|   /        |    /                           |
  W          +H       E  +Q.      +E   +Q.    +H        +H..        E
|----------|-------------------|---------------------|-----------------||
|----------|---------10-(10)---|-(10)-(10)---(10)----|-(10)--------(x)-||
|----------|-------------------|---------------------|-----------------||
|-0--------|-(0)---------------|---------------------|-----------------||
|-0--------|-(0)---------------|---------------------|-----------------||
|-0--------|-(0)---------------|---------------------|-----------------||
|
|                     |   /        |    /                           |
| W          +H       E  +Q.      +E   +Q.    +H        +H..        E
|----------|-------------------|---------------------|-----------------||
|----------|---------10-(10)---|-(10)-(10)---(10)----|-(10)--------(x)-||
|----------|-------------------|---------------------|-----------------||
|-0--------|-(0)---------------|---------------------|-----------------||
|-0--------|-(0)---------------|---------------------|-----------------||
|-0--------|-(0)---------------|---------------------|-----------------||


    Q=220
    Eb5      D5       N.C.    Eb5
    |-3--|   |-3--|    |-3--| |-3--|
    E  E E   E  E E    E  E E E  E E
||-------------------------------------|
||o------------------------------------|
||---------------------5--5-5-4--4-4---|
||--6--6-6---5--5-5--------------------|
||o------------------------------------|
||-------------------------------------|
|
|   PM       PM               PM
|   E.     S E.     S  Q      E.     S
||-------------------------------------|
||o------------------------------------|
||-------------------------------------|
||-------------------------------------|
||o-1--------0----------------1--------|
||--1--------0--------11\-----1--------|


  D5       N.C.    Eb5      D5         N.C.    Eb5      D5       N.C.
  |-3--|    |-3--| |-3--|   |-3--|      |-3--| |-3--|   |-3--|    |-3--|
  E  E E    E  E E E  E E   E  E E      E  E E E  E E   E  E E    E  E E
|------------------------------------|------------------------------------||
|------------------------------------|-----------------------------------o||
|------------------------------------|--5--5-5-4--4-4---------------------||
|-6--6-6----5--5-5-6--6-6---5--5-5---|------------------6--6-6----5--5-5--||
|------------------------------------|-----------------------------------o||
|------------------------------------|------------------------------------||
|
| PM               PM       PM                 PM       PM
| E.     S  Q      E.     S E.     S    Q      E.     S E.     S  Q
|------------------------------------|------------------------------------||
|------------------------------------|-----------------------------------o||
|------------------------------------|------------------------------------||
|------------------------------------|------------------------------------||
|-0----------------1--------0--------|---------1--------0----------------o||
|-0--------11\-----1--------0--------|-11\-----1--------0--------11\------||


    Eb5      D5       N.C.    Eb5
    |-3--|   |-3--|    |-3--| |-3--|
    E  E E   E  E E    E  E E E  E E
||-------------------------------------|
||o------------------------------------|
||---------------------5--5-5-4--4-4---|
||--6--6-6---5--5-5--------------------|
||o------------------------------------|
||-------------------------------------|
|
|   PM       PM               PM
|   E.     S E.     S  Q      E.     S
||-------------------------------------|
||o------------------------------------|
||-------------------------------------|
||-------------------------------------|
||o-1--------0----------------1--------|
||--1--------0--------11\-----1--------|


  D5       N.C.    Eb5      D5         N.C.    Eb5      D5       N.C.
  |-3--|    |-3--| |-3--|   |-3--|      |-3--| |-3--|   |-3--|    |-3--|
  E  E E    E  E E E  E E   E  E E      E  E E E  E E   E  E E    E  E E
|------------------------------------|------------------------------------||
|------------------------------------|-----------------------------------o||
|------------------------------------|--5--5-5-4--4-4---------------------||
|-6--6-6----5--5-5-6--6-6---5--5-5---|------------------6--6-6----5--5-5--||
|------------------------------------|-----------------------------------o||
|------------------------------------|------------------------------------||
|
| PM               PM       PM                 PM       PM
| E.     S  Q      E.     S E.     S    Q      E.     S E.     S  Q
|------------------------------------|------------------------------------||
|------------------------------------|-----------------------------------o||
|------------------------------------|------------------------------------||
|------------------------------------|------------------------------------||
|-0----------------1--------0--------|---------1--------0----------------o||
|-0--------11\-----1--------0--------|-11\-----1--------0--------11\------||


  N.C.
   H     H      W          W          W
|-------------|----------|----------|------*|
|-------------|----------|----------|------*|
|-------------|----------|----------|------*|
|-------------|----------|----------|------*|
|-------------|----------|----------|------*|
|-11\---------|----------|----------|------*|
|
|  H     H      W          W          W
|-------------|----------|----------|------*|
|-------------|----------|----------|------*|
|-------------|----------|----------|------*|
|-------------|----------|----------|------*|
|-------------|----------|----------|------*|
|--8\---------|----------|----------|------*|



Duration Legend
---------------
W - whole; H - half; Q - quarter; E - 8th; S - 16th; T - 32nd; X - 64th; a - acciaccatura
+ - note tied to previous; . - note dotted; .. - note double dotted
Uncapitalized letters represent notes that are staccato (1/2 duration)
Irregular groupings are notated above the duration line
Duration letters will always appear directly above the note/fret number it represents the
duration for.  Duration letters with no fret number below them represent rests.  Multi-
bar rests are notated in the form Wxn, where n is the number of bars to rest for.  Low
melody durations appear below the staff

Tablature Legend
----------------
 h   - hammer-on
 p   - pull-off
 b   - bend
 pb  - pre-bend
 r   - bend release (if no number after the r, then release immediately)
 /\  - slide into or out of (from/to "nowhere")
 s   - legato slide
 S   - shift slide
 - natural harmonic
[n]  - artificial harmonic
n(n) - tapped harmonic
 ~   - vibrato
 tr  - trill
 T   - tap
 TP  - trem. picking
 PM  - palm muting
\n/  - tremolo bar dip; n = amount to dip
 \n  - tremolo bar down
 n/  - tremolo bar up
/n\  - tremolo bar inverted dip
 =   - hold bend; also acts as connecting device for hammers/pulls
 <> - volume swell (louder/softer)
 x   - on rhythm slash represents muted slash
 o   - on rhythm slash represents single note slash

Misc Legend
-----------
 |  - bar
||  - double bar
||o - repeat start
o|| - repeat end
*|  - double bar (ending)
 :  - bar (freetime)
 $  - Segno
 &  - Coda
Tempo markers -  = BPM(8/16=s8/s16), where s8 = swing 8ths, s16 = swing 16ths
Добавлено: 12.05.2012
Другие материалы по этой песне:

Страница создана 29.03.2012
http://primanota.ru/the-number-12-looks-like-you/blue-dress-chords.htm
Привет, Гость.
Предлагаем пройти революционный курс по гитаре.
Подарок от PrimaNota.Ru, забирай!