PrimaNota.ru - самый крупный в мире бесплатный архив песенных текстов, аккордов, табулатур и нот


The Nothing - July The Fourth - таба, видео

Регистрация Запомнить меня
Войти через:  Facebook Google Twitter Vk Yandex Mail.ru

The Nothing - July The Fourth - таба, видео

Печатать
Просмотров: 28
Новый альбом группы 'Черный Кузнец' по культовому сериалу 'Сверхъестественное'!
[Intro]
Listen 4 rhythm
e|----------------------------------|
b|----------------------------------|
g|---5------5-------2---6-----------|
d|---5---2--5--2----2---6-----------|  
a|---3---2--3--2----0---4-----------|
E|-------0-----0--------------------|

[Chorus]
(Guitar 1)
e|----0------0-----------------------|
b|----0------0-----------------------|
g|4---2------2-----------------------|
d|5---2--2---2-----------------------|  
a|5---0--2---0-----------------------|
E|3------3---------------------------|

[Lead]
e|------------------------------------|
b|------------------------------------|
g|------------------------------------|
d|---9-9-9-7-7/9-10-7---12-10-7--10-9-|  
a|------------------------------------|
E|------------------------------------|
When its over same c# from the end of the intro

[Bridge]
e|---------------------------------|
b|---------------------------------|
g|-13------------------------------|
d|-13-----6-----9------------------|  
a|-11-----6-----9------------------|
E|-0------4-----7------------------|
  
Then chorus again you can handle


************************************

| /  Slide up

************************************
Добавлено: 12.12.2017
Другие материалы по этой песне:
  • Аккорды и текст

Страница создана 12.12.2017
http://primanota.ru/the-nothing/july-fourth-chords.htm
Привет, Гость.
Предлагаем пройти революционный курс по гитаре.
Подарок от PrimaNota.Ru, забирай!