PrimaNota.ru - самый крупный в мире бесплатный архив песенных текстов, аккордов, табулатур и нот


The Nothing - Dig - таба, видео

Регистрация Запомнить меня
Войти через:  Facebook Google Twitter Vk Yandex Mail.ru

The Nothing - Dig - таба, видео

Печатать
Просмотров: 42
Новый альбом группы 'Черный Кузнец' по культовому сериалу 'Сверхъестественное'!
[Intro]

e|-------------0---------------0-------------0-------------------------------| [2x]
B|-------3---3-----------3---3---------3---3---------------------------------|
G|-----6---6-----------6---6---------6---6-----------------------------------|
D|---4---------------4-------------4-----------------------------------------|
A|-5---------------5-------------5--------------5--5-------------------------|
D|--------------------------------------------4---4--------------------------|

e|-------------------|
B|-------------------|
G|-------------------|
D|-0-0-0-0-4-4-4-5---| x4
A|-0-0-0-0-4-4-4-5---|
E|-0-0-0-0-4-4-4-5---|


[Verse]

e|-----------------------------------------------------------------------------|
B|-----------------------------------------------------------------------------| [Rhythm]
G|-----------------------------------------------------------------------------|
D|-0-0-0-0-0-0-0-4-4-4--0-0-0-0-0-0-0-4-4-4--0-0-0-0-0-0-0-4-4-4-5-5-5-5-5-5-5-|
A|-0-0-0-0-0-0-0-4-4-4--0-0-0-0-0-0-0-4-4-4--0-0-0-0-0-0-0-4-4-4-5-5-5-5-5-5-5-|
D|-0-0-0-0-0-0-0-4-4-4--0-0-0-0-0-0-0-4-4-4--0-0-0-0-0-0-0-4-4-4-5-5-5-5-5-5-5-|

e|-----------------------------------------------------------------------------|
B|-----------------------------------------------------------------------------|
G|-----6-------6-----6--7------------------------------------------------------|
D|-7------7-------7------------------------------------------------------------|
A|-----------------------------------------------------------------------------|
D|-----------------------------------------------------------------------------|  [Lead]


[Chorus]

(Scratched your name into me, so I cannot forget..)

e|---------------------------------------------------------------------------|
B|---------------------------------------------------------------------------|
G|---------------------------------------------------------------------------|
D|---------------------------------------------------------------------------| 
A|4-4-4-4-4-4-4-4-4-4-4-4-4-4-4-4---5-5-5-5-5-5-5-5-5-5-5-5-5-5-5-5-5-5-5----|
D|4-4-4-4-4-4-4-4-4-4-4-4-4-4-4-4---5-5-5-5-5-5-5-5-5-5-5-5-5-5-5-5-5-5-5----|

e|---------------------------------------------------------------------------|
B|-2---2---2---2---2---2---3---3---3---5---3--3------------------------------|
G|--3---3---3---3---3---3---4---4---4---4---4--4-----------------------------|
D|---4---4-------4---4-------5---5-------5---5-------------------------------|
A|---------------------------------------------------------------------------|
D|---------------------------------------------------------------------------|


[Stayed until  the end.. ]
                                  (slurred)
e|---------------------------------------------------------------------------|
B|---------------------------------------------------------------------------|
G|---------------------------------------------------------------------------|
D|-4-2-3x--------------------4-3-2-------------------------------------------|
A|-4-2-3x--------------------4-3-2-------------------------------------------|
D|-4-2-3x--------------------4-3-2-------------------------------------------|


************************************

| x  Dead note

************************************
Добавлено: 12.12.2017
Другие материалы по этой песне:
  • Аккорды и текст

Страница создана 12.12.2017
http://primanota.ru/the-nothing/dig-chords.htm
Привет, Гость.
Предлагаем пройти революционный курс по гитаре.
Подарок от PrimaNota.Ru, забирай!