PrimaNota.ru - самый крупный в мире бесплатный архив песенных текстов, аккордов, табулатур и нот


The Nothing - Chloroform - таба, видео

Регистрация Запомнить меня
Войти через:  Facebook Google Twitter Vk Yandex Mail.ru

The Nothing - Chloroform - таба, видео

Печатать
Просмотров: 35
Новый альбом группы 'Черный Кузнец' по культовому сериалу 'Сверхъестественное'!
Nothing Suck, Whirr Rule

[Intro]

(Guitar 1)

e|---------------------------------------------------------------------------|
B|---------------------------------------------------------------------------|
G|--------6---6b-------------------------------------------------------------|
D|----7-7---7----------------------------------------------------------------|
A|---------------------------------------------------------------------------|
E|---------------------------------------------------------------------------|

e|-----------------------------|----------------------------------------------|
B|---------------9-----9---9---|----------------------------------------------|
G|----6------6-9---9-----9---9-|--7--6h7p6h7-6--------------------------------|
D|-------7-9-------------------|---------------9-7h9p7--------7-9-------------|
A|-----------------------------|-----------------------9--7-9-----------------|
E|-----------------------------|----------------------------------------------|

(Guitar 2)

e|------------|---------------------------------------------------------------|
B|------------|---------------------------------------------------------------|
G|------------|---------------------------------------------------------------|
D|----7----7--|--9----12------------------------------------------------------|
A|----7----7--|--9----12------------------------------------------------------|
E|----5----5--|--7----10------------------------------------------------------|



[Verse]

e|---------|----------|-------|-------------------------------------------------|
B|---------|----------|-------|-------------------------------------------------|
G|---------|--6-------|-------|-------------------------------------------------|
D|----7----|-(7)-6----|--4----|--7----------------------------------------------|
A|----7----|--7--7----|--4----|--7----------------------------------------------|
E|----5----|--5--5----|--2----|--5----------------------------------------------|


[Chorus]

e|-------|--------|-------------|-------|-------|-------------------------------------|
B|-------|--------|-------------|-------|-------|-------------------------------------|
G|-------|--------|-------------|-------|-------|------6---6b-------------------------|
D|--6----|--6--4--|--7----------|--6----|--4----|--7-7---7----------------------------|
A|--6----|--6--4--|--7----------|--6----|--4----|-------------------------------------|
E|--4----|--4--2--|--5----------|--4----|--2----|-------------------------------------|


[Outro]

e|-----|-----|-----|-----|----------------------------------------------------------------------|
B|-----|-----|-----|-----|----------------------------------------------------------------------|
G|-----|-----|-----|-----|----------------------------------------------------------------------|
D|--7--|--7--|--7--|--7--|--6b------------------------------------------------------------------|
A|--7--|--7--|--7--|--7--|----------------------------------------------------------------------|
E|--5--|--5--|--5--|--5--|----------------------------------------------------------------------|


*Verse again, finish on F# chord then harmonics on 7th fret of the A string


[Solo] 

(over verse chords)

e|----------------|-----------------------------------------------------------|
B|----------------|-----------------------------------------------------------|
G|----7--6--8-----|-----------------------6-----------------------------------|
D|-------------9--|--9b--7--7-7h9p7---7-9-------------------------------------|
A|----------------|-----------------------------------------------------------|
E|----------------|-----------------------------------------------------------|

e|----------------|-----------------------------------------------------------|
B|----------------|-----------------------------------------------------------|
G|----7--6--8-----|-----------------------------6-7-6-------------------------|
D|-------------9--|--9b--7--7-7h9p7---------7-9-------------------------------|
A|----------------|-----------------9---7-9-----------------------------------|
E|----------------|-----------------------------------------------------------|


***********************************
| h   Hummer-on
| p   Pull-off
| b   Bend
|(n)  Ghost note
***********************************
Добавлено: 12.12.2017
Другие материалы по этой песне:
  • Аккорды и текст

Страница создана 12.12.2017
http://primanota.ru/the-nothing/chloroform-chords.htm
Привет, Гость.
Предлагаем пройти революционный курс по гитаре.
Подарок от PrimaNota.Ru, забирай!