PrimaNota.ru - самый крупный в мире бесплатный архив песенных текстов, аккордов, табулатур и нот


The Nightwatchman - Guerilla Radio - таба, видео

Регистрация Запомнить меня
Войти через:  Facebook Google Twitter Vk Yandex Mail.ru

The Nightwatchman - Guerilla Radio - таба, видео

Печатать
Просмотров: 107
-------------------------------------------------------------------------------
			     Guerilla Radio - The Nightwatchman
-------------------------------------------------------------------------------
Tabbed by:chrisjrt
Email:chrisjrtstab@yahoo.co.uk

This is my first tab and i think it is a pretty good attempt at it

Tuning: standard- capo 2nd fret

(tom has his guitar tuned down a half step so if you want to play "exactly" like him, do 
and capo the 3rd fret...)

This song has basically 4 parts, they are:

Main Riff


e|-----------3---------------|
B|-------2---3---------------|
G|-------2---0-------x---x---|
D|---0---2---0---2---x---x---|
A|---0-------2---2---x---x---|
E|---0-------3---0---x---x---|

Tension Builder

e|-----------3----------------------------------------------------|
B|-------2---3----------------------------------------------------|
G|-------2---0---444444444444---555555555555---777777777777-------|
D|---0---2---0---444444444444---555555555555---777777777777---2---|
A|---0-------2---222222222222---333333333333---555555555555---2---|
E|---0-------3------------------------------------------------0---|

Ha...Ha part

e|-----------3---------------|
B|-------2---3---------------|
G|-------2---0---------------|
D|---0---2---0---2---x---2---|
A|---0-------2---2---x---2---|
E|---0-------3---0---x---0---|

Harmonica part

the multiple muted strings is done at the end usually, he changes when he does it occasionally...

e|---------------------------------------|
B|---------------------------------------|
G|-----------------------2---xxxxxxxxxxxx|
D|---2---x---2---x---2---2---xxxxxxxxxxxx|
A|---2---x---2---x---2---0---xxxxxxxxxxxx|
E|---0---x---0---x---0-------xxxxxxxxxxxx|

and thats pretty much it

any problems, queries, suggestions etc just email, thanks

| /  slide up
| \  slide down
| h  hammer-on
| p  pull-off
| ~  vibrato
| +  harmonic
| x  Mute note
===============================================================================
Добавлено: 11.08.2013
Другие материалы по этой песне:
  • Аккорды и текст

Страница создана 11.08.2013
http://primanota.ru/the-nightwatchman/guerilla-radio-chords.htm
Привет, Гость.
Предлагаем пройти революционный курс по гитаре.
Подарок от PrimaNota.Ru, забирай!