PrimaNota.ru - самый крупный в мире бесплатный архив песенных текстов, аккордов, табулатур и нот


The Nightwatchman - Flesh Shapes The Day - таба, видео

Регистрация Запомнить меня
Войти через:  Facebook Google Twitter Vk Yandex Mail.ru

The Nightwatchman - Flesh Shapes The Day - таба, видео

Печатать
Просмотров: 74
Уроки эстрадного вокала в Санкт-Петербурге
Song: Flesh Shapes The Day
Band: The Nightwatchman
Album: One Man Revolution
Tuning: Drop D
Tabbed: J. Griff (artificial_inside@yahoo.com)
Comments:
I noticed that there were no tabs for this song. I decided to tab it out myself. If 
any mistakes, let me know. Please rate.

Guitar Legend:
x = The "Chuck"


Intro: "One, two, three..."

e|-x-xxx-xx-xxxxxxxx-|
B|-x-xxx-xx-xxxxxxxx-|
G|-x-xxx-xx-xxxxxxxx-|
D|-x-xxx-xx-xxxxxxxx-|
A|-x-xxx-xx-xxxxxxxx-|
D|-x-xxx-xx-xxxxxxxx-|

e|-----------------------------------------------|
B|-----------------------------------------------|
G|-----------------------------------------------|
D|-2222--2222--2222--222---2222--2222--2222--222-|
A|-2242--2242--2242--242---2242--2242--2242--242-|
D|-2222--2222--2222--222---2222--2222--2222--222-|


Verse 1: "Now you might have heard different..."

e|-----------------------------------------------|
B|-----------------------------------------------|
G|-----------------------------------------------|
D|-2222--2222--2222--222---2222--2222--2222--222-|
A|-2242--2242--2242--242---2242--2242--2242--242-|
D|-2222--2222--2222--222---2222--2222--2222--222-|

e|-----------------------------------------------|
B|-----------------------------------------------|
G|-----------------------------------------------|
D|-2222--2222--2222--222---2222--2222--2222--222-|
A|-2242--2242--2242--242---2242--2242--2242--242-|
D|-2222--2222--2222--222---2222--2222--2222--222-|

e|-----------------------------------------------|
B|-----------------------------------------------|
G|-----------------------------------------------|
D|-7777--7777--7777--777---7777--7777--7777--777-|
A|-7797--7797--7797--797---7797--7797--7797--797-|
D|-7777--7777--7777--777---7777--7777--7777--777-|

e|-----------------------------------------------|
B|-----------------------------------------------|
G|-----------------------------------------------|
D|-2222--2222--2222--222---2222--2222--2222--222-|
A|-2242--2242--2242--242---2242--2242--2242--242-|
D|-2222--2222--2222--222---2222--2222--2222--222-|


Pre-Chorus: "Land and freedom, steel and faith..."

e|-------------------------------------------|
B|-------------------------------------------|
G|-------------------------------------------|
D|-9-99-999--9-99-999----------------------2-| Let it ring
A|-9-99-999--9-99-999--7797-7797-7797-797--2-| on the last 2.
D|-9-99-999--9-99-999--7777-7777-7777-777--2-|


Chorus: "Woohoo hoo... Mic check..."

e|-----------------------------------------------|
B|-----------------------------------------------|
G|-----------------------------------------------|
D|-2222--2222--2222--222---2222--2222--2222--222-|
A|-2242--2242--2242--242---2242--2242--2242--242-|
D|-2222--2222--2222--222---2222--2222--2222--222-|

e|-----------------------------------------|
B|-----------------------------------------|
G|-----------------------------------------|
D|-9-99-999--9-99-999----------------------|
A|-9-99-999--9-99-999--7797-7797-7797-797--|
D|-9-99-999--9-99-999--7777-7777-7777-777--|

e|---------------------------|
B|---------------------------|
G|---------------------------|
D|-5-2-220-5-2-222-5-2-220-2-| Let it ring
A|-5-2-220-5-2-222-5-2-220-2-| on the last 2.
D|-5-2-220-5-2-222-5-2-220-2-|


Verse 2: "Now it's clear as a pillar of smoke..."

e|-----------------------------------------------|
B|-----------------------------------------------|
G|-----------------------------------------------|
D|-2222--2222--2222--222---2222--2222--2222--222-|
A|-2242--2242--2242--242---2242--2242--2242--242-|
D|-2222--2222--2222--222---2222--2222--2222--222-|

e|-----------------------------------------------|
B|-----------------------------------------------|
G|-----------------------------------------------|
D|-2222--2222--2222--222---2222--2222--2222--222-|
A|-2242--2242--2242--242---2242--2242--2242--242-|
D|-2222--2222--2222--222---2222--2222--2222--222-|

e|-----------------------------------------------|
B|-----------------------------------------------|
G|-----------------------------------------------|
D|-7777--7777--7777--777---7777--7777--7777--777-|
A|-7797--7797--7797--797---7797--7797--7797--797-|
D|-7777--7777--7777--777---7777--7777--7777--777-|

e|-----------------------------------------------|
B|-----------------------------------------------|
G|-----------------------------------------------|
D|-2222--2222--2222--222---2222--2222--2222--222-|
A|-2242--2242--2242--242---2242--2242--2242--242-|
D|-2222--2222--2222--222---2222--2222--2222--222-|


Pre-Chorus: "Land and freedom, steel and faith..."

e|-------------------------------------------|
B|-------------------------------------------|
G|-------------------------------------------|
D|-9-99-999--9-99-999----------------------2-| Let it ring
A|-9-99-999--9-99-999--7797-7797-7797-797--2-| on the last 2.
D|-9-99-999--9-99-999--7777-7777-7777-777--2-|


Chorus: "Woohoo hoo... Mic check..."

e|-----------------------------------------------|
B|-----------------------------------------------|
G|-----------------------------------------------|
D|-2222--2222--2222--222---2222--2222--2222--222-|
A|-2242--2242--2242--242---2242--2242--2242--242-|
D|-2222--2222--2222--222---2222--2222--2222--222-|

e|-----------------------------------------|
B|-----------------------------------------|
G|-----------------------------------------|
D|-9-99-999--9-99-999----------------------|
A|-9-99-999--9-99-999--7797-7797-7797-797--|
D|-9-99-999--9-99-999--7777-7777-7777-777--|

e|---------------------------|
B|---------------------------|
G|---------------------------|
D|-5-2-220-5-2-222-5-2-220-2-| Let it ring
A|-5-2-220-5-2-222-5-2-220-2-| on the last 2.
D|-5-2-220-5-2-222-5-2-220-2-|


Breakdown: "Si se puede..."

e|----------------------------------------------------|
B|----------------------------------------------------|
G|----------------------------------------------------|
D|-xx-77-55-22-x-77-55-22-00--77-55-22-x--77-55-22-55-|
A|-xx-77-55-22-x-77-55-22-00--77-55-22-x--77-55-22-55-|
D|-xx-77-55-22-x-77-55-22-00--77-55-22-x--77-55-22-55-|

e|--------------------------------------|
B|--------------------------------------|
G|--------------------------------------|
D|-77-55-22-x-77-55-22-00--77-55-22-x-2-|
A|-77-55-22-x-77-55-22-00--77-55-22-x-2-|
D|-77-55-22-x-77-55-22-00--77-55-22-x-2-|


Verse 3: "Veteran's hospitals, and witches spells..."

Play softly at first, then slowly start playing louder.

e|-----------------------------------------------|
B|-----------------------------------------------|
G|-----------------------------------------------|
D|-2222--2222--2222--222---2222--2222--2222--222-|
A|-2242--2242--2242--242---2242--2242--2242--242-|
D|-2222--2222--2222--222---2222--2222--2222--222-|

e|-----------------------------------------------|
B|-----------------------------------------------|
G|-----------------------------------------------|
D|-2222--2222--2222--222---2222--2222--2222--222-|
A|-2242--2242--2242--242---2242--2242--2242--242-|
D|-2222--2222--2222--222---2222--2222--2222--222-|

e|-----------------------------------------------|
B|-----------------------------------------------|
G|-----------------------------------------------|
D|-7777--7777--7777--777---7777--7777--7777--777-|
A|-7797--7797--7797--797---7797--7797--7797--797-|
D|-7777--7777--7777--777---7777--7777--7777--777-|

e|-----------------------------------------------|
B|-----------------------------------------------|
G|-----------------------------------------------|
D|-2222--2222--2222--222---2222--2222--2222--222-|
A|-2242--2242--2242--242---2242--2242--2242--242-|
D|-2222--2222--2222--222---2222--2222--2222--222-|


Pre-Chorus: "Land and freedom, steel and faith..."

e|-------------------------------------------|
B|-------------------------------------------|
G|-------------------------------------------|
D|-9-99-999--9-99-999----------------------2-| Let it ring
A|-9-99-999--9-99-999--7797-7797-7797-797--2-| on the last 2.
D|-9-99-999--9-99-999--7777-7777-7777-777--2-|


Chorus: "Woohoo hoo... Mic check..."

e|-----------------------------------------------|
B|-----------------------------------------------|
G|-----------------------------------------------|
D|-2222--2222--2222--222---2222--2222--2222--222-|
A|-2242--2242--2242--242---2242--2242--2242--242-|
D|-2222--2222--2222--222---2222--2222--2222--222-|

e|-----------------------------------------|
B|-----------------------------------------|
G|-----------------------------------------|
D|-9-99-999--9-99-999----------------------|
A|-9-99-999--9-99-999--7797-7797-7797-797--|
D|-9-99-999--9-99-999--7777-7777-7777-777--|

e|---------------------------------|
B|---------------------------------|
G|---------------------------------|
D|-5-2-220-5-2-222-5-2-220-5-2-222-|
A|-5-2-220-5-2-222-5-2-220-5-2-222-|
D|-5-2-220-5-2-222-5-2-220-5-2-222-|

e|---------------------------|
B|---------------------------|
G|---------------------------|
D|-5-2-220-5-2-222-5-2-220-2-| Let it ring
A|-5-2-220-5-2-222-5-2-220-2-| on the last 2.
D|-5-2-220-5-2-222-5-2-220-2-|
Добавлено: 03.12.2013
Другие материалы по этой песне:
  • Аккорды и текст

Страница создана 03.12.2013
http://primanota.ru/the-nightwatchman/flesh-shapes-the-day-chords.htm
Привет, Гость.
Предлагаем пройти революционный курс по гитаре.
Подарок от PrimaNota.Ru, забирай!