PrimaNota.ru - самый крупный в мире бесплатный архив песенных текстов, аккордов, табулатур и нот


The Nick Hexum Quintet - Tidal Wave - таба, видео

Регистрация Запомнить меня
Войти через:  Facebook Google Twitter Vk Yandex Mail.ru

The Nick Hexum Quintet - Tidal Wave - таба, видео

Печатать
Просмотров: 93
-------------------------------------------------------------------------------
                             TIDAL WAVE - The Nick Hexum Quintet
-------------------------------------------------------------------------------
Tabbed by: Smits

Tuning: Standard

  Intro + Verses
e|---------------------------------------------------------------------------|
B|---3-----5-----------------------------------------------------------------|
G|---4-----5-----------------------------------------------------------------|
D|---5-----7-----------------------------------------------------------------|
A|---5-----7-----------------------------------------------------------------|
E|-3------5------------------------------------------------------------------|

  Bridge
e|---------------------------------------------------------------------------|
B|---------------------------------------------------------------------------|
G|-0-------5-------4---------------0-------5-------4-------7-----------------|
D|---------------------------------------------------------------------------|
A|---------------------------------------------------------------------------|
E|---------------------------------------------------------------------------|
   Ti-     dal     Wave            Knock   Me      O-      ver

  Chorus
e|---------------------------------------------------------------------------|
B|-----------------------------------3---------------------------------------|
G|-----------------------------------4--------5-------4----------------------|
D|-----------------------------------5--------7-------5----------------------|
A|-----------------------------------5---------------------------------------|
E|---------------------------------------------------------------------------|
                                     I'm      in all the way
                                     You're   a tidal wave
                                     You're   a tidal wave

  Solo
e|-----7----------10p7-------7----10p7-------7-10/12-----10\8-----8\7--------|
B|-7h8---7-7/8~--------8---8-----------8---8---------7h8---------------------|
G|-----------------------9---------------9--------------------7h9------------|
D|---------------------------------------------------------------------------|
A|---------------------------------------------------------------------------|
E|---------------------------------------------------------------------------|

e|-------10/12---------------------------------------------------------------|
B|-----8-------10/12~--------------------------------------------------------|
G|-5-7-----------------------------------------------------------------------|
D|---------------------------------------------------------------------------|
A|---------------------------------------------------------------------------|
E|---------------------------------------------------------------------------|


************************************

| /   slide up
| \   slide down
| h   hammer-on
| p   pull-off
| ~   vibrato
| +   harmonic
| x   Mute note
| b   Bend
| pb  Pre-bend
| br  Bend release
| pbr Pre-bend release
| brb Bend release bend

************************************
Добавлено: 03.09.2015
Вам также может быть интересно:
Другие материалы по этой песне:
  • Аккорды и текст

Страница создана 03.09.2015
http://primanota.ru/the-nick-hexum-quintet/tidal-wave-chords.htm
Привет, Гость.
Предлагаем пройти революционный курс по гитаре.
Подарок от PrimaNota.Ru, забирай!