PrimaNota.ru - самый крупный в мире бесплатный архив песенных текстов, аккордов, табулатур и нот


The New Velvet - Let It Ride - таба, видео

Регистрация Запомнить меня
Войти через:  Facebook Google Twitter Vk Yandex Mail.ru

The New Velvet - Let It Ride - таба, видео

Печатать
Просмотров: 59
Artist: The New Velvet
Title: Let It Ride
Tabbed by: Kyle Sanchez

Standard tuning
Capo on the 3rd Fret


Intro:

e|--x-x-x-x-x-x-x-x--------2-2-2-2-2-2-2--------------------------------------------|
B|--3-3-3-3-3-3-3-3--------3-3-3-3-3-3-3----------5-5-------------------------------|
G|--2-2-2-2-2-2-2-2--------4-4-4-4-4-4-4/9----4-4-4-4-4-4-4-4-4-4-4-4---------------|
D|--0-0-0-0-0-0-0-0--------4-4-4-4-4-4-4------5-5-3-3-5-5-5-5-5-5-5-5---------------|
A|--0-0-0-0-0-0-0-0----5/7-2-2-2-2-2-2-2------5-5-3-3-5-5-5-5-5-5-5-5----5h7/9-7-5--|
E|--2-2-2-2-2-2-2-2-5/7----x-x-x-x-x-x-x------3-3-3-3-3-3-3-3-3-3-3-3-5h7-----------|
___________________________________________________________________________________

There's more to me than these old shoes I got on
I might look a little green but girl I'm gonna take you there
Gotta fake a smile sometimes but the truth is in my eyes
Look a little deeper baby ooh I'm gonna take you there

e--x-x-x-x-x-x-x-x---2-2-2-2-2-2-2--------------------------------------------|
B--3-3-3-3-3-3-3-3---3-3-3-3-3-3-3----------5-5-------------------------------|
G--2-2-2-2-2-2-2-2---4-4-4-4-4-4-4------4-4-4-4-4-4-4-4-4-4-4-4---------------| x2
D--0-0-0-0-0-0-0-0---4-4-4-4-4-4-4------5-5-3-3-5-5-5-5-5-5-5-5---------------|
A--0-0-0-0-0-0-0-0---2-2-2-2-2-2-2------5-5-3-3-5-5-5-5-5-5-5-5----5h7/9-7-5--|
E--2-2-2-2-2-2-2-2---x-x-x-x-x-x-x------3-3-3-3-3-3-3-3-3-3-3-3-5h7-----------|

___________________________________________________________________________________

So hard to tell you what I see in you "and I"
e|---------2--------------------------x-x-x-x-x-x-x-x------|
B|---------3--<--Play this------------3-3-3-3-3-3-3-3------|
G|---------4--<--chord until----------2-2-2-2-2-2-2-2------|
D|---------4--<----"and I"------------0-0-0-0-0-0-0-0------|
A|---------3--------------------------0-0-0-0-0-0-0-0------|
E|---------x--------------------------2-2-2-2-3-3-3-3------|


Maybe we were meant to be in another life
e|---------2--------------------------x-x-x-x-x-x-x-x------|
B|---------3--<--Play this------------3-3-3-3-3-3-3-3------|
G|---------4--<--chord until----------2-2-2-2-2-2-2-2------|
D|---------4--<----"life"-------------0-0-0-0-0-0-0-0------|
A|---------3--------------------------0-0-0-0-0-0-0-0------|
E|---------x--------------------------2-2-2-2-3-3-3-3------|

Just sitting here with you feels so right, it feels so right
e|---------2----------------------x-x-x-x-x-x-x-x------|
B|---------3--<--Play this--------3-3-3-3-3-3-3-3------|
G|---------4--<--chord until------2-2-2-2-2-2-2-2------|
D|---------4--<-"so right"--------0-0-0-0-0-0-0-0------|
A|---------3----------------------0-0-0-0-0-0-0-0------|
E|---------x----------------------2-2-2-2-3-3-3-3------|

Can we start with something small and let it ride
e|-----0----------3----------0-------------------|
B|-----3----------2----------3-------------------|
G|-----0----------3----------0-------------------|
D|-----0----------0----------2-------------------|
A|-----2----------0----------0-------------------|
E|-----3----------2----------0-------------------|

_____________________________________________________

e--x-x-x-x-x-x-x-x--------2-2-2-2-2-2-2--------------------------------------------|
B--3-3-3-3-3-3-3-3--------3-3-3-3-3-3-3----------5-5-------------------------------|
G--2-2-2-2-2-2-2-2--------4-4-4-4-4-4-4/9----4-4-4-4-4-4-4-4-4-4-4-4---------------|
D--0-0-0-0-0-0-0-0--------4-4-4-4-4-4-4------5-5-3-3-5-5-5-5-5-5-5-5---------------|
A--0-0-0-0-0-0-0-0----5/7-2-2-2-2-2-2-2------5-5-3-3-5-5-5-5-5-5-5-5----5h7/9-7-5--|
E--2-2-2-2-2-2-2-2-5/7----x-x-x-x-x-x-x------3-3-3-3-3-3-3-3-3-3-3-3-5h7-----------|

_____________________________________________________

I'm not from another world we all live love and die
Don't you see our stars alignin mm I'm gonna take you there
You seem so unsure but you can take your time
I'm gona give it all to you, oh I'm gonna take you there

e|--x-x-x-x-x-x-x-x---2-2-2-2-2-2-2---------------------------------------------|
B|--3-3-3-3-3-3-3-3---3-3-3-3-3-3-3----------5-5--------------------------------|
G|--2-2-2-2-2-2-2-2---4-4-4-4-4-4-4------4-4-4-4-4-4-4-4-4-4-4-4----------------| x2
D|--0-0-0-0-0-0-0-0---4-4-4-4-4-4-4------5-5-3-3-5-5-5-5-5-5-5-5----------------|
A|--0-0-0-0-0-0-0-0---2-2-2-2-2-2-2------5-5-3-3-5-5-5-5-5-5-5-5----5h7/9-7-5---|
E|--2-2-2-2-2-2-2-2---x-x-x-x-x-x-x------3-3-3-3-3-3-3-3-3-3-3-3-5h7------------|

_____________________________________________________


So hard to tell you what I see in you "and I"
e|---------2--------------------------x-x-x-x-x-x-x-x------|
B|---------3--<--Play this------------3-3-3-3-3-3-3-3------|
G|---------4--<--chord until----------2-2-2-2-2-2-2-2------|
D|---------4--<----"and I"------------0-0-0-0-0-0-0-0------|
A|---------3--------------------------0-0-0-0-0-0-0-0------|
E|---------x--------------------------2-2-2-2-3-3-3-3------|


Maybe we were meant to be in another life
e|---------2--------------------------x-x-x-x-x-x-x-x------|
B|---------3--<--Play this------------3-3-3-3-3-3-3-3------|
G|---------4--<--chord until----------2-2-2-2-2-2-2-2------|
D|---------4--<----"life"-------------0-0-0-0-0-0-0-0------|
A|---------3--------------------------0-0-0-0-0-0-0-0------|
E|---------x--------------------------2-2-2-2-3-3-3-3------|

Just sitting here with you feels so right, it feels so right
e|---------2----------------------x-x-x-x-x-x-x-x------|
B|---------3--<--Play this--------3-3-3-3-3-3-3-3------|
G|---------4--<--chord until------2-2-2-2-2-2-2-2------|
D|---------4--<-"so right"--------0-0-0-0-0-0-0-0------|
A|---------3----------------------0-0-0-0-0-0-0-0------|
E|---------x----------------------2-2-2-2-3-3-3-3------|

Can we start with something small and let it ride
e|-----0----------3----------0-------------------|
B|-----3----------2----------3-------------------|
G|-----0----------3----------0-------------------|
D|-----0----------0----------2-------------------|
A|-----2----------0----------0-------------------|
E|-----3----------2----------0-------------------|

____________________________________________________




You look so good you got me wishing
e|---2---2---2---2---2---2---2---2--------------|
B|---3---3---3---3---3---3---3---3--------------|
G|---4---4---4---4---4---4---4---4--------------|
D|---4---4---4---4---4---4---4---4--------------|
A|---2---2---2---2---2---2---2---2--------------|
E|---x---x---x---x---x---x---x---x--------------|

That you were mine and my world stopped shifting
e|---3---3---3---3---3---3---3---3--------------|
B|---3---3---3---3---3---3---3---3--------------|
G|---0---0---0---0---0---0---0---0--------------|
D|---0---0---0---0---0---0---0---0--------------|
A|---2---2---2---2---2---2---2---2--------------|
E|---3---3---3---3---3---3---3---3--------------|


My heart feels like a cannonball
e|---3---3---3---3---3---3---3---3--------------|
B|---2---2---2---2---2---2---2---2--------------|
G|---3---3---3---3---3---3---3---3--------------|
D|---0---0---0---0---0---0---0---0--------------|
A|---0---0---0---0---0---0---0---0--------------|
E|---2---2---2---2---2---2---2---2--------------|

Oh Its not my fault, the strongest men fall
e|-3---------------------0----------------------|
B|-2---------------------3----------------------|
G|-3---------------------0----------------------|
D|-0---------------------2----------------------|
A|-0---------------------0----------------------|
E|-2---------------------x----------------------|
...So cross my name off your wall
e|-3--------------------------------------------|
B|-3--------------------------------------------|
G|-0--------------------------------------------|
D|-0--------------------------------------------|
A|-2--------------------------------------------|
E|-3--------------------------------------------|
____________________________________________________

So hard to tell you what I see in you and I
e|-------0---------0------0h2------0------------|
B|-----3---------3-------3-------3--------------|
G|---2-----2---2-------2-------2----------------|
D|-4---------5-------4-------2------------------|
A|----------------------------------------------|
E|----------------------------------------------|

Maybe we were meant to be in another life
e|-------0---------0------0h2------0------------|
B|-----3---------3-------3-------3--------------|
G|---2-----2---2-------2-------2----------------|
D|-4---------5-------4-------2------------------|
A|----------------------------------------------|
E|----------------------------------------------|

Just sitting here with you feels so right, it feels so right
e|-------0-------0------0h2------0--------------|
B|-----3-------3-------3-------3----------------|
G|---2-------2-------2-------2------------------|
D|-4-------5-------4-------2--------------------|
A|----------------------------------------------|
E|----------------------------------------------|

Can we start with something small
e|-----0----------0---------0-------------------|
B|-----3----------3---------3-------------------|
G|-----2----------2---------2-------------------|
D|-----4----------5---------2-------------------|
A|----------------------------------------------|
E|----------------------------------------------|

___________________________________________________

So hard to tell you what I see in you "and I"
e|---------2--------------------------x-x-x-x-x-x-x-x------|
B|---------3--<--Play this------------3-3-3-3-3-3-3-3------|
G|---------4--<--chord until----------2-2-2-2-2-2-2-2------|
D|---------4--<----"and I"------------0-0-0-0-0-0-0-0------|
A|---------3--------------------------0-0-0-0-0-0-0-0------|
E|---------x--------------------------2-2-2-2-3-3-3-3------|


Maybe we were meant to be in another life
e|---------2--------------------------x-x-x-x-x-x-x-x------|
B|---------3--<--Play this------------3-3-3-3-3-3-3-3------|
G|---------4--<--chord until----------2-2-2-2-2-2-2-2------|
D|---------4--<----"life"-------------0-0-0-0-0-0-0-0------|
A|---------3--------------------------0-0-0-0-0-0-0-0------|
E|---------x--------------------------2-2-2-2-3-3-3-3------|

Just sitting here with you feels so right, it feels so right
e|---------2----------------------x-x-x-x-x-x-x-x----------|
B|---------3--<--Play this--------3-3-3-3-3-3-3-3----------|
G|---------4--<--chord until------2-2-2-2-2-2-2-2----------|
D|---------4--<-"so right"--------0-0-0-0-0-0-0-0----------|
A|---------3----------------------0-0-0-0-0-0-0-0----------|
E|---------x----------------------2-2-2-2-3-3-3-3----------|

Can we start with something small and let it ride
e|-----0----------3----------0-------------------|
B|-----3----------2----------3-------------------|
G|-----0----------3----------0-------------------|
D|-----0----------0----------2-------------------|
A|-----2----------0----------0-------------------|
E|-----3----------2----------0-------------------|

Can we start with something small and let it ride
e|-----0----------3----------0-------------------|
B|-----3----------2----------3-------------------|
G|-----0----------3----------0-------------------|
D|-----0----------0----------2-------------------|
A|-----2----------0----------0-------------------|
E|-----3----------2----------0-------------------|

Can we start with something small and let it ride
e|-----0----------3----------0--------------------x--|
B|-----3----------2----------3--------------------3--|
G|-----0----------3----------0--------------------2--|
D|-----0----------0----------2--------------------0--|
A|-----2----------0----------0--------------------0--|
E|-----3----------2----------0--------------------2--|


Thank you for checking out my Tab and have a great day!
- Kyle M. Sanchez
Добавлено: 08.07.2013
Другие материалы по этой песне:
  • Аккорды и текст

Страница создана 08.07.2013
http://primanota.ru/the-new-velvet/let-it-ride-chords.htm
Привет, Гость.
Предлагаем пройти революционный курс по гитаре.
Подарок от PrimaNota.Ru, забирай!