PrimaNota.ru - самый крупный в мире бесплатный архив песенных текстов, аккордов, табулатур и нот


The New Cities - The Hype - аккорды и текст, видео

Регистрация Запомнить меня
Войти через:  Facebook Google Twitter Vk Yandex Mail.ru

The New Cities - The Hype - аккорды и текст, видео

Печатать
Просмотров: 85
Уроки эстрадного вокала в Санкт-Петербурге
The Hype
The New Cities
Good song by The New Cities. Put a capo on 3 and play these 4 chords:

Tuning: Standard *capo on 3rd fret*

I play the chords in the intro and verses like this (play twice as slow in 3rd verse)

  Am    F     C     G
e|--------------------------|
B|--------------------------|
G|------------5-------------|
D|-7----3-----5-----5-------|
A|-7----3-----3-----5-------|
E--5----1-----------3-------|

I play the chords like this in the bridge and chorus

  Am    F     C     G
e|-0----1-----0-----3-------|
B|-1----1-----1-----3-------|
G|-2----2-----0-----0-------|
D|-2----3-----2-----0-------|
A|-0----3-----3-----2-------|
E--0----1-----x-----3-------|


I cant find lyrics to this song but heres the bridge and chorus for example:

BRIDGE:

Am      F      C   G
This is all so wrong
Am      F         C      G
Make it right and sing along
   Am        F       C  G
So sing me a song I know
Am         F         C      G
Sing me a, sing me a song I know (and it goes)

CHORUS

Am       F        C        G
Na na na na na na na na na na.. etc
Добавлено: 02.07.2012
Вам также может быть интересно:
Другие материалы по этой песне:
  • Аккорды и текст

Страница создана 02.07.2012
http://primanota.ru/the-new-cities/the-hype-chords.htm
Привет, Гость.
Предлагаем пройти революционный курс по гитаре.
Подарок от PrimaNota.Ru, забирай!