PrimaNota.ru - самый крупный в мире бесплатный архив песенных текстов, аккордов, табулатур и нот


The Nerves - Paper Dolls - аккорды и текст, видео

Регистрация Запомнить меня
Войти через:  Facebook Google Twitter Vk Yandex Mail.ru

The Nerves - Paper Dolls - аккорды и текст, видео

Печатать
Просмотров: 84
Paper Dolls
The Nerves
-------------------------------------------------------------------------------
                             PAPER DOLLS - The Nerves
-------------------------------------------------------------------------------
Tabbed by:
E-mail:

Tuning: EADGBE

Chords:
    B  A  F#
e|--2--0--2--|
B|--4--2--2--|
G|--4--2--3--|
D|--4--2--4--|
A|--2--0--4--|
E|--------2--|

(riff)
            B           A              B             B            B
e|---------------------------------------------------------------------------|
B|-----0-5--4--4--4-2-0-----------0-5--4--4-----0-5--4--4-----0-5--4--4--4-2-|
G|-1h2------------------2--(2)1h2-----------1h2-----------1h2----------------|
D|---------------------------------------------------------------------------|
A|---------------------------------------------------------------------------|
E|---------------------------------------------------------------------------|
    A              B             B             B
e|---------------------------------------------------------------------------|
B|0-----------0-5--4--4-----0-5--4--4-----0-5--4-----------------------------|
G|--2--(2)1h2-----------1h2-----------1h2------------------------------------|
D|---------------------------------------------------------------------------|
A|---------------------------------------------------------------------------|
E|---------------------------------------------------------------------------|

(verse)

B
 I'm cutting out all my paper dolls
                             
 I wonder which one's gonna drive
                      A
 Drive me crazy this time
         F#
 Oh this time
B
 I'm cutting out all my paper dolls

 I tried each one but they all
                 A
 Turned out the same
        F#
 Oh the same
   A     
 I tried each one but they all
                 B
 Turned out the same
             A
 I'm gonna tear'em all up and then
                     F#
 I'm gonna throw'em away

 Hey
                     B   etc.

(ending on B)

************************************

| /   slide up
| \   slide down
| h   hammer-on
| p   pull-off
| ~   vibrato
| +   harmonic
| x   Mute note
| b   Bend
| pb  Pre-bend
| br  Bend release
| pbr Pre-bend release
| brb Bend release bend

************************************
Добавлено: 03.01.2016
Другие материалы по этой песне:
  • Аккорды и текст

Страница создана 03.01.2016
http://primanota.ru/the-nerves/paper-dolls-chords.htm
Привет, Гость.
Предлагаем пройти революционный курс по гитаре.
Подарок от PrimaNota.Ru, забирай!