PrimaNota.ru - самый крупный в мире бесплатный архив песенных текстов, аккордов, табулатур и нот


The Nearly Deads - Never Look Back - таба, видео

Регистрация Запомнить меня
Войти через:  Facebook Google Twitter Vk Yandex Mail.ru

The Nearly Deads - Never Look Back - таба, видео

Печатать
Просмотров: 141
INTRO

Electric 1+2

E|--------------------|
B|--------------------|
G|--------------------|
D|-----------777----0-|
A|-----2-x6--777-x2-0-|
D|-2-5-------777----0-|

VERSE (part 1)

Electric 2

E|---------|
B|---------|
G|---------|
D|---------|
A|---------|
D|9-10-7-5-|

VERSE (part 2)

Electric 2

E|------------|
B|------------|
G|------------|
D|-9-10-7-5-4-|
A|-9-10-7-5-4-|
D|-9-10-7-5-4-|

Electric 3

E|------------10-17------12----------|
B|-----12-----------10---------------|
G|-9-7-11-9-7----------9----16-15-19-|
D|--------------------------x--x--x--|
A|--------------------------14-13-17-|
D|-----------------------------------|

PRE-CHORUS

Electric 1+2

E|------|
B|------|
G|------|
D|-10-7-|
A|-10-7-|
D|-10-7-|

Electric 3

E|-7--------7-------|
B|---8---x2---8-----|
G|-----9--------9bb-|
D|------------------|
A|------------------|
D|------------------|

CHORUS

Electric 1

E|-------------------------7-------|
B|-------------------------8-------|
G|-9-16-14--9-14-12--5-12--9-12-11-|
D|-x-x--x---x-x--x---x-x-----x--x--|
A|-7-14-12--7-12-10--3-10----10-9--|
D|---------------------------------|

Electric 2

E|-------------|
B|-------------|
G|-------------|
D|-2-0-10-7-10-|
A|-2-0-10-7-10-|
D|-2-0-10-7-10-|

Electric 3

E|---10---------------10---------------10------------------------------|
B|------10h12r10-8-------10h12r10-8-------10h12r10-8--12---------10-12-|
G|-9----------------7------------------------------------11-9-12-------|
D|----------------------------------10---------------------------------|
A|---------------------------------------------------------------------|
D|---------------------------------------------------------------------|

INTRO

VERSE (part 1)

Electric 1+2

E|------------|
B|------------|
G|------------|
D|--------5-4-|
A|--------5-4-|
D|-9-10-7-5-4-|

VERSE (part 2)

Electric 1+2

E|------------------------------------------|
B|------------------------------------------|
G|------------------------------------------|
D|-22-2-0-2-0-2----10----7-7-5-7-5-7----5-4-|
A|-22-----------x2-10-x6-7-----------x2-5-4-|
D|-22--------------10----7--------------5-4-|

Electric 3

E|---------------|
B|---------------|
G|-9-12-14-12-11-|
D|---------------|
A|---------------|
D|---------------|

PRE-CHORUS

CHORUS

SOLO

Electric 1

E|---------------------7-----/8-8p7h8-------151515p14h15----------------|
B|--------------8-8h10----------------10-10-----------------------15----|
G|-9--12r11r9\7----------7-7-----------------------------16-14h16-------|
D|-------------------------------------------------------------------16-|
A|----------------------------------------------------------------------|
D|----------------------------------------------------------------------|

Electric 2+3

E|----------|
B|----------|
G|----------|
D|-2-5-7-10-|
A|-2-5-7-10-|
D|-2-5-7-10-|

POST SOLO

Electric 2+3

E|----------|
B|----------|
G|----------|
D|-2-5-7-10-|
A|-2-5-7-10-|
D|-2-5-7-10-|

Electric 1

E|-------------|
B|-------17-17-|
G|-------------|
D|-16-17-------|
A|-------------|
D|-------------|

CHORUS

INTRO
Добавлено: 23.10.2013
Вам также может быть интересно:
Другие материалы по этой песне:
  • Аккорды и текст

Страница создана 23.10.2013
http://primanota.ru/the-nearly-deads/never-look-back-chords.htm
Привет, Гость.
Предлагаем пройти революционный курс по гитаре.
Подарок от PrimaNota.Ru, забирай!