PrimaNota.ru - самый крупный в мире бесплатный архив песенных текстов, аккордов, табулатур и нот


The Narrative - Winters Coming - таба, видео

Регистрация Запомнить меня
Войти через:  Facebook Google Twitter Vk Yandex Mail.ru

The Narrative - Winters Coming - таба, видео

Печатать
Просмотров: 120
Уроки эстрадного вокала в Санкт-Петербурге
Artist: The Narrative
Song: Winter's Coming
Tabbed by: Alxoldr

Tuning: Capo 1, Standard
All chords and notes are relative to the capo.

Verse 1

e|------------------------------------------------------|----------------------|
B|------------------------------------------------------|----------------------|
G|--0-4-2--------2-4-2p-0------7-9-7-5-----2-4-2--------|--2-4-2-0-------------|
D|--------4--------------------------------------4------|----------5555-6666666|
A|------------------------------------------------------|----------------------|
E|-----------5\1-----------3/11---------9\1-------------|----------------------|
                                                      x3          end with^ 

"Are you in danger, you swore by a ship wreck..."  

Chorus 1   

e|-------------------------------|----------------------------------------------|
B|--3----------------------------|--3-------------------------------------------|
G|--5----------------------------|--5-------------------------------------------|
D|--5--------4--------7----------|--5--------4--------7-------------------------|
A|--5--------5--------5----------|--5--------5--------5-------------------------|
E|-----------3--------5----------|-----------3--------5-------------------------|
                               x3                end with^
Listen to song for strumming pattern

"And the Winter's coming close...'Cause I am a sinner with a crooked smile..."     

Post Chorus/Verse 2. 

e|--x--------x--------x--------x-(3-2222-3333333)*--------------------------------|
B|--3--------3--------7--------3--------------------------------------------------|
G|-----------2-----------------2--------------------------------------------------|
D|-----------2-----------------2--------------------------------------------------|
A|--x-----------------------------------------------------------------------------|
E|--3-----------------7-----------------------------------------------------------|

Post Chorus x1 Verse 2 x3
*Optional if you want to mimic the pattern played by the piano
These parts are the same, but pick through the chords for the post chorus and strum the verse.

"I drown in the mirror, you know this thing is a damn disease..."

Chorus 2
e|-------------------------------|--------------------x----------------------------x--|
B|--3----------------------------|--3-----------------3---------3------------------3--|
G|--5----------------------------|--5-----------------2---------5------------------2--|
D|--5--------4--------7----------|--5--------4--------2---------5--------4---------2--|
A|--5--------5--------5----------|--5--------5------------------5--------5------------|
E|-----------3--------5----------|-----------3---------------------------3------------|
                             x3  
Listen to song for strumming pattern

"And the Winter's coming close...'Cause I am a sinner with a crooked smile..."
              
Bridge
e|------------x------------|-------------------------------------x---------------|
B|--3~--------3~-----------|--3-------------------------3--------3---------------|
G|--5~--------2~-----------|--5-------------------------5--------2---------------|
D|--5~--------2~--------4~-|--5--------4--------7-------5--------2--------4------|
A|--5~------------------5~-|--5--------5--------5-------5-----------------5------|
E|----------------------3~-|-----------3--------5-------------------------3------|
                       x2                                     Repeat until ending

Ending
e|-----------------------------------------------------------------------------|
B|-----------------------------------------------------------------------------|
G|--3~-------------------------------------------------------------------------|
D|--5~-------------------------------------------------------------------------|
A|--5~-------------------------------------------------------------------------|
E|--5~-------------------------------------------------------------------------|

"'Cause I am a sinner with a crooked smile and you took to the rhythm of a no good liar..."

************************************

The above version was arranged based on the acoustic version of the song, 
the studio version features a lead guitar during the end of the choruses 
and throughout the bridge. Below are the tabs for these sections. Still relative to capo 1.

End of Chorus 1 & 2 & end of bridge (The second chorus repeats this part twice)
e|-----------------------------------------------------------------------------|
B|--15-15-15-15-15-15-15-15-10-10-10-10-10-10-10-10-7-7-7-7-7-7-8-8------------|
G|-----------------------------------------------------------------------------|
D|-----------------------------------------------------------------------------|
A|-----------------------------------------------------------------------------|
E|-----------------------------------------------------------------------------|

Bridge/Solo pt.1 
e|-----------------------------------------------------------------------------|
B|-----------------------------------------------------------------------------|
G|--12~11~9-8~--------12-11-9-11~-11-9-12-12-11~9~12~--------------------------|
D|-----------------------------------------------------------------------------|
A|-----------------------------------------------------------------------------|
E|-----------------------------------------------------------------------------|

Bridge/Solo pt.2 (Repeat this part until the ending when the guitar fades out)
e|-----------------------------------------------------------------------------|
B|-----------------------------------------------------------------------------|
G|--12-11-9-11~-10-9-12-12-11--------12-11-9-11~-11-9-7-5----------------------|
D|-----------------------------------------------------------------------------|
A|-----------------------------------------------------------------------------|
E|-----------------------------------------------------------------------------|


************************************

| /   slide up
| \   slide down
| p   pull-off
| ~   vibrato
| x   Mute note
************************************
Добавлено: 23.08.2015
Другие материалы по этой песне:
  • Аккорды и текст

Страница создана 23.08.2015
http://primanota.ru/the-narrative/winters-coming-chords.htm
Привет, Гость.
Предлагаем пройти революционный курс по гитаре.
Подарок от PrimaNota.Ru, забирай!