PrimaNota.ru - самый крупный в мире бесплатный архив песенных текстов, аккордов, табулатур и нот


The Naked Brothers Band - Proof Of My Love - аккорды и текст, таба, видео

Регистрация Запомнить меня
Войти через:  Facebook Google Twitter Vk Yandex Mail.ru

The Naked Brothers Band - Proof Of My Love - аккорды и текст, таба, видео

Печатать
Просмотров: 103
Уроки эстрадного вокала в Санкт-Петербурге
Proof Of My Love
The Naked Brothers Band
Written by Nat Wolff

Intro:

E|-------------------|
B|----------------12-|
G|-----------13------|
D|------14-----------|
A|-14----------------|
E|-------------------|
   B    E    Ab   B

E|-----------------------------|
B|-----------------------------|
G|-13---13---13---13---13---13-|
D|-14---14---14---14---14---14-|
A|-----------------------------|
E|-----------------------------|
- E/G# E/G# E/G# E/Ab E/G# E/G#
Play chord E

E|-------------------|
B|----------------12-|
G|-----------11------|
D|------13-----------|
A|-14----------------|
E|-------------------|
   B    Eb   F#   B

E|-----------------------------------|
B|-----------------------------------|
G|-13----13----11----11----13----13--|
D|-13----13----13----13----13----13--|
A|-----------------------------------|
E|-----------------------------------|
- D#/G# D#/G# D#/F# D#/F# D#/G# D#/G#
Play chord B

Repeat intro

                     E
I know this feeling's true.
                      B
That I'm in love with you.
                     E
I know you think I'm wrong.
                     B
But I wrote you this song.

Abm
Sorry about last time.
   E
He might have hurt your feelings.
    B
But I have feelings too.
                Abm              E
And they're for you, they're for you.

              B
No more R.C.M.J.N.B.N.O.E.
E                         B
The space is reserved for you and me.

               E
Do I need some proof.
                   B
Some more proof of my love?
              E
What I see in you.
                        B
Is maybe what I'm going through.

Abm
Sorry about last time.
   E
He might have hurt your feelings.
    B
But I have feelings too.
                Abm              E
And they're for you, they're for you.


You give me confidence.
B
You give me laughter.
E                            B
You give me sparkles for the day.

And light for the night.

Solo: E B E B

                     E
I know you think I'm wrong.
                     B
But I wrote you this song.
                  E
Now you think I'm wrong.
                     B
But I wrote you this song.

                 E
Do you need some proof?
                      B
Some more proof of my love.
                 E
Do you need some proof?
                      B
Some more proof of my love.
                 E
Do you need some proof?
                      B
Some more proof of my love.
                 E
Do you need some proof?
                      B
Some more proof of my love.
Добавлено: 15.04.2012
Другие материалы по этой песне:
  • Аккорды и текст

Страница создана 15.04.2012
http://primanota.ru/the-naked-brothers-band/proof-of-my-love-chords.htm
Привет, Гость.
Предлагаем пройти революционный курс по гитаре.
Подарок от PrimaNota.Ru, забирай!