PrimaNota.ru - самый крупный в мире бесплатный архив песенных текстов, аккордов, табулатур и нот


The Naked Apes - Me Me Me - таба, видео

Регистрация Запомнить меня
Войти через:  Facebook Google Twitter Vk Yandex Mail.ru

The Naked Apes - Me Me Me - таба, видео

Печатать
Просмотров: 106
Уроки эстрадного вокала в Санкт-Петербурге
-------------------------------------------------------------------------------
                             Me Me Me - The Naked Apes
-------------------------------------------------------------------------------
Tabbed by: muhat gandy

Tuning: standard

Intro                        x2      
e|----------------------------|
B|----------------------------|
G|----------------------------|
D|--2---2/4---7---7/9---------|
A|--2---2/4---7---7/9---------|
E|--0---0/2---5---5/7---------|

Verse                  x3
e|--0---0/2---5---5/7---||--5--5-5--5/7--7---|
B|--0---0/2---5---5/7--0||--5--5-5--5/7--7---|
G|--1---1/3---6---6/8---||--6--6-6--6/8--8---|
D|--2---2/4---7---7/9---||--7--7-7--7/9--9---|
A|--2---2/4---7---7/9--0||--7--7-7--7/9--9---|
E|--0---0/2---5---5/7---||--5--5-5--5/7--7---|

Chorus                    x2
e|-------------------------||-----------------------------|
B|------------------------0||-----------------------------|
G|-------------------------||-----------------------------|
D|--2---2/4---7---7/9------||--2-2-2-2-4-4-4-4--7---7/9---|
A|--2---2/4---7---7/9-----0||--2-2-2-2-4-4-4-4--7---7/9---|
E|--0---0/2---5---5/7------||--0-0-0-0-2-2-2-2--5---5/7---|

e|----------------------------|
B|----------------------------|
G|----------------------------|
D|--2---2/4---7---7/9---------|
A|--2---2/4---7---7/9---------|
E|--0---0/2---5---5/7---------|


Добавлено: 07.04.2012
Другие материалы по этой песне:
  • Аккорды и текст

Страница создана 07.04.2012
http://primanota.ru/the-naked-apes/me-me-me-chords.htm
Привет, Гость.
Предлагаем пройти революционный курс по гитаре.
Подарок от PrimaNota.Ru, забирай!