PrimaNota.ru - самый крупный в мире бесплатный архив песенных текстов, аккордов, табулатур и нот


The Myrrors - Mother Of All Living - таба, видео

Регистрация Запомнить меня
Войти через:  Facebook Google Twitter Vk Yandex Mail.ru

The Myrrors - Mother Of All Living - таба, видео

Печатать
Просмотров: 65
Уроки эстрадного вокала в Санкт-Петербурге
There's not solo... maybe I tab it later

Riff 1
-----------------------|-----------------------|-----------------------|-------------------------|
-----------------------|-----------------------|-----------------------|-------------------------|
-----------------------|-----------------------|-----------------------|-------------------------|
-----5-----------5-----|-----5-----------5-----|-----5-----------5-----|-----5-----------5-------|
--7-----7-----------7--|--7-----7-----------7--|--7-----7-----------7--|--7-----7-----------7----|
-----------5--7--------|-----------5--7--------|-----------5--7--------|-----------5--7----------|

  Riff 2

----------------------------------|-------------------------|-------------|
----------------------------------|-------------------------|-------------|
----------------------------------|-------------------------|-------------|
-----------------------5~---------|------------5~-----------|-------------|
--------------2--------------5--7-|---2--------------5--7---|-------------|
--------------0-------------------|---0---------------------|-------------|

That's the whole song in fact


Solo(Just the Beginning)
-----------------------------------------------------------|-------------|
-----------------------------------------------------------|-------------|
-----------------------------------------------------------|-------------|
-----------------------5-7-7b9----7-7-7-7-5----------------|-------------|
----------------7~---7-----------------------7-5h7--7----- |-------------|
---------------------------------------------------------- |-------------|

Just let you go from here^

^
Добавлено: 06.12.2015
Вам также может быть интересно:
Другие материалы по этой песне:
  • Аккорды и текст

Страница создана 06.12.2015
http://primanota.ru/the-myrrors/mother-of-all-living-chords.htm
Привет, Гость.
Предлагаем пройти революционный курс по гитаре.
Подарок от PrimaNota.Ru, забирай!